  0
SECTION
  2
HEADER
  9
$ACADVER
  1
AC1009
  9
$INSBASE
 10
0.0
 20
0.0
 30
0.0
  9
$EXTMIN
 10
0.0
 20
0.0
 30
0.0
  9
$EXTMAX
 10
420.0
 20
297.0
 30
0.0
  9
$LIMMIN
 10
0.0
 20
0.0
  9
$LIMMAX
 10
420.0
 20
297.0
  9
$ORTHOMODE
 70
     0
  9
$REGENMODE
 70
     1
  9
$FILLMODE
 70
     1
  9
$QTEXTMODE
 70
     0
  9
$MIRRTEXT
 70
     0
  9
$DRAGMODE
 70
     2
  9
$LTSCALE
 40
1.0
  9
$OSMODE
 70
   767
  9
$ATTMODE
 70
     1
  9
$TEXTSIZE
 40
4.7475198677252592
  9
$TRACEWID
 40
1.0
  9
$TEXTSTYLE
  7
STANDARD
  9
$CLAYER
  8
0
  9
$CELTYPE
  6
BYLAYER
  9
$CECOLOR
 62
   256
  9
$DIMSCALE
 40
1.0
  9
$DIMASZ
 40
1.0
  9
$DIMEXO
 40
3.0
  9
$DIMDLI
 40
3.75
  9
$DIMRND
 40
0.0
  9
$DIMDLE
 40
0.0
  9
$DIMEXE
 40
1.0
  9
$DIMTP
 40
0.0
  9
$DIMTM
 40
0.0
  9
$DIMTXT
 40
3.0
  9
$DIMCEN
 40
2.5
  9
$DIMTSZ
 40
0.0
  9
$DIMTOL
 70
     0
  9
$DIMLIM
 70
     0
  9
$DIMTIH
 70
     0
  9
$DIMTOH
 70
     0
  9
$DIMSE1
 70
     0
  9
$DIMSE2
 70
     0
  9
$DIMTAD
 70
     1
  9
$DIMZIN
 70
     8
  9
$DIMBLK
  1
DOT
  9
$DIMASO
 70
     1
  9
$DIMSHO
 70
     1
  9
$DIMPOST
  1

  9
$DIMAPOST
  1

  9
$DIMALT
 70
     0
  9
$DIMALTD
 70
     3
  9
$DIMALTF
 40
0.03937007874016
  9
$DIMLFAC
 40
1.0
  9
$DIMTOFL
 70
     1
  9
$DIMTVP
 40
0.0
  9
$DIMTIX
 70
     0
  9
$DIMSOXD
 70
     0
  9
$DIMSAH
 70
     0
  9
$DIMBLK1
  1
DOT
  9
$DIMBLK2
  1

  9
$DIMSTYLE
  2
ISO-50_1_HP
  9
$DIMCLRD
 70
     0
  9
$DIMCLRE
 70
     0
  9
$DIMCLRT
 70
     0
  9
$DIMTFAC
 40
1.0
  9
$DIMGAP
 40
0.625
  9
$LUNITS
 70
     2
  9
$LUPREC
 70
     4
  9
$SKETCHINC
 40
1.0
  9
$FILLETRAD
 40
0.0
  9
$AUNITS
 70
     0
  9
$AUPREC
 70
     0
  9
$MENU
  1
.
  9
$ELEVATION
 40
0.0
  9
$PELEVATION
 40
0.0
  9
$THICKNESS
 40
0.0
  9
$LIMCHECK
 70
     0
  9
$BLIPMODE
 70
     0
  9
$CHAMFERA
 40
0.0
  9
$CHAMFERB
 40
0.0
  9
$SKPOLY
 70
     0
  9
$TDCREATE
 40
2455751.3843198381
  9
$TDUPDATE
 40
2460182.4190662391
  9
$TDINDWG
 40
2.3175797106
  9
$TDUSRTIMER
 40
2.3175792708
  9
$USRTIMER
 70
     1
  9
$ANGBASE
 50
0.0
  9
$ANGDIR
 70
     0
  9
$PDMODE
 70
     0
  9
$PDSIZE
 40
0.0
  9
$PLINEWID
 40
0.0
  9
$COORDS
 70
     1
  9
$SPLFRAME
 70
     0
  9
$SPLINETYPE
 70
     6
  9
$SPLINESEGS
 70
     8
  9
$ATTDIA
 70
     0
  9
$ATTREQ
 70
     1
  9
$HANDLING
 70
     1
  9
$HANDSEED
  5
1D555
  9
$SURFTAB1
 70
     6
  9
$SURFTAB2
 70
     6
  9
$SURFTYPE
 70
     6
  9
$SURFU
 70
     6
  9
$SURFV
 70
     6
  9
$UCSNAME
  2

  9
$UCSORG
 10
0.0
 20
0.0
 30
0.0
  9
$UCSXDIR
 10
1.0
 20
0.0
 30
0.0
  9
$UCSYDIR
 10
0.0
 20
1.0
 30
0.0
  9
$PUCSNAME
  2

  9
$PUCSORG
 10
0.0
 20
0.0
 30
0.0
  9
$PUCSXDIR
 10
1.0
 20
0.0
 30
0.0
  9
$PUCSYDIR
 10
0.0
 20
1.0
 30
0.0
  9
$USERI1
 70
     0
  9
$USERI2
 70
     0
  9
$USERI3
 70
     0
  9
$USERI4
 70
     0
  9
$USERI5
 70
     0
  9
$USERR1
 40
0.0
  9
$USERR2
 40
0.0
  9
$USERR3
 40
0.0
  9
$USERR4
 40
0.0
  9
$USERR5
 40
0.0
  9
$WORLDVIEW
 70
     1
  9
$SHADEDGE
 70
     3
  9
$SHADEDIF
 70
    70
  9
$TILEMODE
 70
     1
  9
$MAXACTVP
 70
    64
  9
$PLIMCHECK
 70
     0
  9
$PEXTMIN
 10
28.51784973144532
 20
19.822584438323979
 30
0.0
  9
$PEXTMAX
 10
256.6606475830078
 20
178.4032599449157
 30
0.0
  9
$PLIMMIN
 10
-5.873748779296875
 20
-5.8737497329711914
  9
$PLIMMAX
 10
291.05224609375
 20
204.0995779037475
  9
$UNITMODE
 70
     0
  9
$VISRETAIN
 70
     1
  9
$PLINEGEN
 70
     0
  9
$PSLTSCALE
 70
     1
  0
ENDSEC
  0
SECTION
  2
TABLES
  0
TABLE
  2
VPORT
 70
     1
  0
VPORT
  2
*ACTIVE
 70
     0
 10
0.0
 20
0.0
 11
1.0
 21
1.0
 12
188.61938952888079
 22
165.0678684891752
 13
0.0
 23
0.0
 14
10.0
 24
20.0
 15
10.0
 25
10.0
 16
0.0
 26
0.0
 36
1.0
 17
0.0
 27
0.0
 37
0.0
 40
191.8203332777837
 41
2.5121457489878538
 42
50.0
 43
0.0
 44
0.0
 50
0.0
 51
0.0
 71
     0
 72
  1000
 73
     1
 74
     3
 75
     0
 76
     0
 77
     0
 78
     0
  0
ENDTAB
  0
TABLE
  2
LTYPE
 70
     2
  0
LTYPE
  2
CONTINUOUS
 70
     0
  3
Solid line
 72
    65
 73
     0
 40
0.0
  0
LTYPE
  2
HIDDEN
 70
     0
  3
Hidden __ __ __ __ __ __ __ __ __ __ __ __ __ _
 72
    65
 73
     2
 40
9.5249999999999968
 49
6.3499999999999979
 49
-3.174999999999998
  0
ENDTAB
  0
TABLE
  2
LAYER
 70
    13
  0
LAYER
  2
0
 70
     0
 62
     7
  6
CONTINUOUS
  0
LAYER
  2
1-1図枠
 70
     0
 62
     3
  6
CONTINUOUS
  0
LAYER
  2
1-2図名
 70
     0
 62
   255
  6
CONTINUOUS
  0
LAYER
  2
2-1寸法
 70
     0
 62
    90
  6
CONTINUOUS
  0
LAYER
  2
DEFPOINTS
 70
     0
 62
   251
  6
CONTINUOUS
  0
LAYER
  2
5-4図補助2
 70
     0
 62
     6
  6
HIDDEN
  0
LAYER
  2
1-4文字
 70
     0
 62
     3
  6
CONTINUOUS
  0
LAYER
  2
5-3図補助
 70
     0
 62
   165
  6
CONTINUOUS
  0
LAYER
  2
4-2付属品
 70
     0
 62
    10
  6
CONTINUOUS
  0
LAYER
  2
4-3アンカー
 70
     0
 62
     2
  6
CONTINUOUS
  0
LAYER
  2
5-1躯体
 70
     0
 62
     9
  6
CONTINUOUS
  0
LAYER
  2
4-1本体
 70
     0
 62
     7
  6
CONTINUOUS
  0
LAYER
  2
5-2その他
 70
     0
 62
     1
  6
CONTINUOUS
  0
ENDTAB
  0
TABLE
  2
STYLE
 70
     1
  0
STYLE
  2
STANDARD
 70
     0
 40
0.0
 41
1.0
 50
0.0
 71
     0
 42
4.7475198677252592
  3
txt
  4

  0
ENDTAB
  0
TABLE
  2
VIEW
 70
     0
  0
ENDTAB
  0
TABLE
  2
UCS
 70
     0
  0
ENDTAB
  0
TABLE
  2
APPID
 70
    21
  0
APPID
  2
ACAD
 70
     0
  0
APPID
  2
ACAD_PSEXT
 70
     0
  0
APPID
  2
ACADANNOPO
 70
     0
  0
APPID
  2
ACADANNOTATIVE
 70
     0
  0
APPID
  2
ACAD_DSTYLE_DIMJAG
 70
     0
  0
APPID
  2
ACAD_DSTYLE_DIMTALN
 70
     0
  0
APPID
  2
ACAD_MLEADERVER
 70
     0
  0
APPID
  2
ACAECLAYERSTANDARD
 70
     0
  0
APPID
  2
ACCMTRANSPARENCY
 70
     0
  0
APPID
  2
ACAD_EXEMPT_FROM_CAD_STANDARDS
 70
     0
  0
APPID
  2
GRADIENTCOLOR1ACI
 70
     0
  0
APPID
  2
GRADIENTCOLOR2ACI
 70
     0
  0
APPID
  2
ACAD_DSTYLE_DIMBREAK
 70
     0
  0
APPID
  2
ACAD_NAV_VCDISPLAY
 70
     0
  0
APPID
  2
ACDBDYNAMICBLOCKGUID
 70
     0
  0
APPID
  2
ACLAYERTOOLS
 70
     0
  0
APPID
  2
ACAD_DSTYLE_DIMRADIAL_EXTENSION
 70
     0
  0
APPID
  2
ACADANNOTATIVEDECOMPOSITION
 70
     0
  0
APPID
  2
ACAUTHENVIRON
 70
     0
  0
APPID
  2
ACDBDYNAMICBLOCKTRUENAME
 70
     0
  0
APPID
  2
ACADANNOMONITORALERTICONDI
 70
     0
  0
ENDTAB
  0
TABLE
  2
DIMSTYLE
 70
     2
  0
DIMSTYLE
  2
ISO-50_1_HP
 70
     0
  3

  4

  5
DOT
  6
DOT
  7

 40
1.0
 41
1.0
 42
3.0
 43
3.75
 44
1.0
 45
0.0
 46
0.0
 47
0.0
 48
0.0
140
3.0
141
2.5
142
0.0
143
0.03937007874016
144
1.0
145
0.0
146
1.0
147
0.625
 71
     0
 72
     0
 73
     0
 74
     0
 75
     0
 76
     0
 77
     1
 78
     8
170
     0
171
     3
172
     1
173
     0
174
     0
175
     0
176
     0
177
     0
178
     0
  0
DIMSTYLE
  2
STANDARD
 70
     0
  3

  4

  5

  6

  7

 40
1.0
 41
0.18
 42
0.0625
 43
0.38
 44
0.18
 45
0.0
 46
0.0
 47
0.0
 48
0.0
140
0.18
141
0.09
142
0.0
143
25.399999999999999
144
1.0
145
0.0
146
1.0
147
0.09
 71
     0
 72
     0
 73
     1
 74
     1
 75
     0
 76
     0
 77
     0
 78
     0
170
     0
171
     2
172
     0
173
     0
174
     0
175
     0
176
     0
177
     0
178
     0
  0
ENDTAB
  0
ENDSEC
  0
SECTION
  2
BLOCKS
  0
BLOCK
  8
0
  2
$MODEL_SPACE
 70
     0
 10
0.0
 20
0.0
 30
0.0
  3
$MODEL_SPACE
  1

  0
ENDBLK
  5
21
  8
0
  0
BLOCK
 67
     1
  8
0
  2
$PAPER_SPACE
 70
     0
 10
0.0
 20
0.0
 30
0.0
  3
$PAPER_SPACE
  1

  0
ENDBLK
  5
1C7AD
 67
     1
  8
0
  0
BLOCK
  8
0
  2
*D0
 70
     1
 10
0.0
 20
0.0
 30
0.0
  3
*D0
  1

  0
LINE
  5
1CE49
  8
2-1寸法
 62
     0
 10
119.5000000000002
 20
210.6875000000004
 30
0.0
 11
102.03652075714081
 21
210.6875000000004
 31
0.0
  0
LINE
  5
1CE4A
  8
2-1寸法
 62
     0
 10
119.5000000000002
 20
137.18750000000011
 30
0.0
 11
102.03652075714081
 21
137.18750000000011
 31
0.0
  0
LINE
  5
1CE4B
  8
2-1寸法
 62
     0
 10
102.53652075714091
 20
209.6875000000004
 30
0.0
 11
102.53652075714081
 21
138.18750000000011
 31
0.0
  0
INSERT
  5
1CE4C
  8
2-1寸法
 62
     0
  2
_DOT
 10
102.53652075714091
 20
210.6875000000004
 30
0.0
 50
90.0
  0
INSERT
  5
1CE4D
  8
2-1寸法
 62
     0
  2
_DOT
 10
102.53652075714081
 20
137.18750000000011
 30
0.0
 50
270.0
  0
INSERT
  5
1CE4E
  8
0
  2
*U17
 10
0.0
 20
0.0
 30
0.0
  0
POINT
  5
1CE4F
  8
DEFPOINTS
 62
     0
 10
122.5000000000001
 20
210.6875000000004
 30
0.0
  0
POINT
  5
1CE50
  8
DEFPOINTS
 62
     0
 10
122.5000000000001
 20
137.18750000000011
 30
0.0
  0
POINT
  5
1CE51
  8
DEFPOINTS
 62
     0
 10
102.53652075714081
 20
137.18750000000011
 30
0.0
  0
ENDBLK
  5
18916
  8
0
  0
BLOCK
  8
0
  2
*D1
 70
     1
 10
0.0
 20
0.0
 30
0.0
  3
*D1
  1

  0
LINE
  5
1CE52
  8
2-1寸法
 62
     0
 10
136.47162763031031
 20
177.18750000000011
 30
0.0
 11
112.03652075714091
 21
177.18750000000011
 31
0.0
  0
LINE
  5
1CE53
  8
2-1寸法
 62
     0
 10
119.5000000000002
 20
137.18750000000011
 30
0.0
 11
112.03652075714081
 21
137.18750000000011
 31
0.0
  0
LINE
  5
1CE54
  8
2-1寸法
 62
     0
 10
112.53652075714091
 20
176.18750000000011
 30
0.0
 11
112.53652075714081
 21
138.18750000000011
 31
0.0
  0
INSERT
  5
1CE55
  8
2-1寸法
 62
     0
  2
_DOT
 10
112.53652075714091
 20
177.18750000000011
 30
0.0
 50
90.0
  0
INSERT
  5
1CE56
  8
2-1寸法
 62
     0
  2
_DOT
 10
112.53652075714081
 20
137.18750000000011
 30
0.0
 50
270.0
  0
INSERT
  5
1CE57
  8
0
  2
*U18
 10
0.0
 20
0.0
 30
0.0
  0
POINT
  5
1CE58
  8
DEFPOINTS
 62
     0
 10
139.47162763031031
 20
177.18750000000011
 30
0.0
  0
POINT
  5
1CE59
  8
DEFPOINTS
 62
     0
 10
122.5000000000001
 20
137.18750000000011
 30
0.0
  0
POINT
  5
1CE5A
  8
DEFPOINTS
 62
     0
 10
112.53652075714081
 20
137.18750000000011
 30
0.0
  0
ENDBLK
  5
18922
  8
0
  0
BLOCK
  8
0
  2
*D2
 70
     1
 10
0.0
 20
0.0
 30
0.0
  3
*D2
  1

  0
LINE
  5
1D09D
  8
2-1寸法
 62
     0
 10
300.50000000000023
 20
138.08749999999989
 30
0.0
 11
313.03652075714092
 21
138.08749999999989
 31
0.0
  0
LINE
  5
1D09E
  8
2-1寸法
 62
     0
 10
300.5
 20
197.8363033212905
 30
0.0
 11
313.03652075714092
 21
197.8363033212905
 31
0.0
  0
LINE
  5
1D09F
  8
2-1寸法
 62
     0
 10
312.53652075714092
 20
139.08749999999989
 30
0.0
 11
312.53652075714092
 21
196.8363033212905
 31
0.0
  0
INSERT
  5
1D0A0
  8
2-1寸法
 62
     0
  2
_DOT
 10
312.53652075714092
 20
138.08749999999989
 30
0.0
 50
270.0
  0
INSERT
  5
1D0A1
  8
2-1寸法
 62
     0
  2
_DOT
 10
312.53652075714092
 20
197.8363033212905
 30
0.0
 50
90.0
  0
INSERT
  5
1D0A2
  8
0
  2
*U27
 10
0.0
 20
0.0
 30
0.0
  0
POINT
  5
1D0A3
  8
DEFPOINTS
 62
     0
 10
297.50000000000023
 20
138.08749999999989
 30
0.0
  0
POINT
  5
1D0A4
  8
DEFPOINTS
 62
     0
 10
297.5
 20
197.8363033212905
 30
0.0
  0
POINT
  5
1D0A5
  8
DEFPOINTS
 62
     0
 10
312.53652075714092
 20
197.8363033212905
 30
0.0
  0
ENDBLK
  5
1892E
  8
0
  0
BLOCK
  8
0
  2
*D3
 70
     1
 10
0.0
 20
0.0
 30
0.0
  3
*D3
  1

  0
LINE
  5
1CEFF
  8
2-1寸法
 62
     0
 10
125.5000000000001
 20
210.68750000000011
 30
0.0
 11
313.03652075714092
 21
210.68750000000011
 31
0.0
  0
LINE
  5
1CF00
  8
2-1寸法
 62
     0
 10
300.5
 20
197.8363033212905
 30
0.0
 11
313.03652075714092
 21
197.8363033212905
 31
0.0
  0
LINE
  5
1CF01
  8
2-1寸法
 62
     0
 10
312.53652075714092
 20
209.68750000000011
 30
0.0
 11
312.53652075714092
 21
198.8363033212905
 31
0.0
  0
INSERT
  5
1CF02
  8
0
  2
*U26
 10
0.0
 20
0.0
 30
0.0
  0
INSERT
  5
1CF03
  8
2-1寸法
 62
     0
  2
_DOT
 10
312.53652075714092
 20
210.68750000000011
 30
0.0
 50
90.0
  0
INSERT
  5
1CF04
  8
2-1寸法
 62
     0
  2
_DOT
 10
312.53652075714092
 20
197.8363033212905
 30
0.0
 50
270.0
  0
POINT
  5
1CF05
  8
DEFPOINTS
 62
     0
 10
122.5000000000001
 20
210.68750000000011
 30
0.0
  0
POINT
  5
1CF06
  8
DEFPOINTS
 62
     0
 10
297.5
 20
197.8363033212905
 30
0.0
  0
POINT
  5
1CF07
  8
DEFPOINTS
 62
     0
 10
312.53652075714092
 20
197.8363033212905
 30
0.0
  0
ENDBLK
  5
1893A
  8
0
  0
BLOCK
  8
0
  2
*D4
 70
     1
 10
0.0
 20
0.0
 30
0.0
  3
*D4
  1

  0
LINE
  5
1CE6D
  8
2-1寸法
 62
     0
 10
122.5000000000001
 20
135.1874994401939
 30
0.0
 11
122.5000000000001
 21
112.6874994401938
 31
0.0
  0
LINE
  5
1CE6E
  8
2-1寸法
 62
     0
 10
137.50000000000011
 20
120.1874994401938
 30
0.0
 11
137.50000000000011
 21
112.6874994401938
 31
0.0
  0
LINE
  5
1CE6F
  8
2-1寸法
 62
     0
 10
123.5000000000001
 20
113.1874994401938
 30
0.0
 11
136.50000000000011
 21
113.1874994401938
 31
0.0
  0
INSERT
  5
1CE70
  8
2-1寸法
 62
     0
  2
_DOT
 10
122.5000000000001
 20
113.1874994401938
 30
0.0
 50
180.0
  0
INSERT
  5
1CE71
  8
2-1寸法
 62
     0
  2
_DOT
 10
137.50000000000011
 20
113.1874994401938
 30
0.0
  0
INSERT
  5
1CE72
  8
0
  2
*U19
 10
0.0
 20
0.0
 30
0.0
  0
POINT
  5
1CE73
  8
DEFPOINTS
 62
     0
 10
122.5000000000001
 20
138.1874994401939
 30
0.0
  0
POINT
  5
1CE74
  8
DEFPOINTS
 62
     0
 10
137.50000000000011
 20
123.1874994401938
 30
0.0
  0
POINT
  5
1CE75
  8
DEFPOINTS
 62
     0
 10
137.50000000000011
 20
113.1874994401938
 30
0.0
  0
ENDBLK
  5
18946
  8
0
  0
BLOCK
  8
0
  2
*D5
 70
     1
 10
0.0
 20
0.0
 30
0.0
  3
*D5
  1

  0
LINE
  5
1CE76
  8
2-1寸法
 62
     0
 10
137.5
 20
120.1874994401938
 30
0.0
 11
137.5
 21
112.6874994401938
 31
0.0
  0
LINE
  5
1CE77
  8
2-1寸法
 62
     0
 10
272.5
 20
120.1874994401938
 30
0.0
 11
272.5
 21
112.6874994401938
 31
0.0
  0
LINE
  5
1CE78
  8
2-1寸法
 62
     0
 10
138.5
 20
113.1874994401938
 30
0.0
 11
271.50000000000011
 21
113.1874994401938
 31
0.0
  0
INSERT
  5
1CE79
  8
2-1寸法
 62
     0
  2
_DOT
 10
137.5
 20
113.1874994401938
 30
0.0
 50
180.0
  0
INSERT
  5
1CE7A
  8
2-1寸法
 62
     0
  2
_DOT
 10
272.5
 20
113.1874994401938
 30
0.0
  0
INSERT
  5
1CE7B
  8
0
  2
*U20
 10
0.0
 20
0.0
 30
0.0
  0
POINT
  5
1CE7C
  8
DEFPOINTS
 62
     0
 10
137.5
 20
123.1874994401938
 30
0.0
  0
POINT
  5
1CE7D
  8
DEFPOINTS
 62
     0
 10
272.5
 20
123.1874994401938
 30
0.0
  0
POINT
  5
1CE7E
  8
DEFPOINTS
 62
     0
 10
272.5
 20
113.1874994401938
 30
0.0
  0
ENDBLK
  5
18952
  8
0
  0
BLOCK
  8
0
  2
*D6
 70
     1
 10
0.0
 20
0.0
 30
0.0
  3
*D6
  1

  0
LINE
  5
1CB94
  8
2-1寸法
 62
     0
 10
272.5
 20
119.565181916759
 30
0.0
 11
272.5
 21
112.690181916759
 31
0.0
  0
LINE
  5
1CB95
  8
2-1寸法
 62
     0
 10
282.49999999999989
 20
114.5413785954685
 30
0.0
 11
282.49999999999989
 21
112.690181916759
 31
0.0
  0
LINE
  5
1CB96
  8
2-1寸法
 62
     0
 10
273.49999999999989
 20
113.190181916759
 30
0.0
 11
281.49999999999989
 21
113.190181916759
 31
0.0
  0
INSERT
  5
1CB97
  8
0
  2
*U16
 10
0.0
 20
0.0
 30
0.0
  0
INSERT
  5
1CB98
  8
2-1寸法
 62
     0
  2
_DOT
 10
272.5
 20
113.190181916759
 30
0.0
 50
180.0
  0
INSERT
  5
1CB99
  8
2-1寸法
 62
     0
  2
_DOT
 10
282.49999999999989
 20
113.190181916759
 30
0.0
  0
POINT
  5
1CB9A
  8
DEFPOINTS
 62
     0
 10
272.5
 20
122.565181916759
 30
0.0
  0
POINT
  5
1CB9B
  8
DEFPOINTS
 62
     0
 10
282.49999999999989
 20
117.5413785954685
 30
0.0
  0
POINT
  5
1CB9C
  8
DEFPOINTS
 62
     0
 10
282.49999999999989
 20
113.190181916759
 30
0.0
  0
ENDBLK
  5
1895E
  8
0
  0
BLOCK
  8
0
  2
*D7
 70
     1
 10
0.0
 20
0.0
 30
0.0
  3
*D7
  1

  0
LINE
  5
1D0A6
  8
2-1寸法
 62
     0
 10
282.50000000000011
 20
120.1874994401938
 30
0.0
 11
282.50000000000011
 21
112.6874994401938
 31
0.0
  0
LINE
  5
1D0A7
  8
2-1寸法
 62
     0
 10
297.50000000000023
 20
136.0901785954685
 30
0.0
 11
297.50000000000023
 21
112.6874994401938
 31
0.0
  0
LINE
  5
1D0A8
  8
2-1寸法
 62
     0
 10
283.5
 20
113.1874994401938
 30
0.0
 11
296.50000000000011
 21
113.1874994401938
 31
0.0
  0
INSERT
  5
1D0A9
  8
2-1寸法
 62
     0
  2
_DOT
 10
282.50000000000011
 20
113.1874994401938
 30
0.0
 50
180.0
  0
INSERT
  5
1D0AA
  8
2-1寸法
 62
     0
  2
_DOT
 10
297.50000000000023
 20
113.1874994401938
 30
0.0
  0
INSERT
  5
1D0AB
  8
0
  2
*U28
 10
0.0
 20
0.0
 30
0.0
  0
POINT
  5
1D0AC
  8
DEFPOINTS
 62
     0
 10
282.50000000000011
 20
123.1874994401938
 30
0.0
  0
POINT
  5
1D0AD
  8
DEFPOINTS
 62
     0
 10
297.50000000000023
 20
139.0901785954685
 30
0.0
  0
POINT
  5
1D0AE
  8
DEFPOINTS
 62
     0
 10
297.50000000000023
 20
113.1874994401938
 30
0.0
  0
ENDBLK
  5
1896A
  8
0
  0
BLOCK
  8
0
  2
*D8
 70
     1
 10
0.0
 20
0.0
 30
0.0
  3
*D8
  1

  0
LINE
  5
1CE88
  8
2-1寸法
 62
     0
 10
122.5000000000001
 20
135.1874994401939
 30
0.0
 11
122.5000000000001
 21
122.6874994401938
 31
0.0
  0
LINE
  5
1CE89
  8
2-1寸法
 62
     0
 10
129.50000000000011
 20
134.6874994401939
 30
0.0
 11
129.50000000000011
 21
122.6874994401938
 31
0.0
  0
LINE
  5
1CE8A
  8
2-1寸法
 62
     0
 10
123.5000000000001
 20
123.1874994401938
 30
0.0
 11
128.50000000000011
 21
123.1874994401938
 31
0.0
  0
INSERT
  5
1CE8B
  8
2-1寸法
 62
     0
  2
_DOT
 10
122.5000000000001
 20
123.1874994401938
 30
0.0
 50
180.0
  0
INSERT
  5
1CE8C
  8
2-1寸法
 62
     0
  2
_DOT
 10
129.50000000000011
 20
123.1874994401938
 30
0.0
  0
INSERT
  5
1CE8D
  8
0
  2
*U21
 10
0.0
 20
0.0
 30
0.0
  0
POINT
  5
1CE8E
  8
DEFPOINTS
 62
     0
 10
122.5000000000001
 20
138.1874994401939
 30
0.0
  0
POINT
  5
1CE8F
  8
DEFPOINTS
 62
     0
 10
129.50000000000011
 20
137.6874994401939
 30
0.0
  0
POINT
  5
1CE90
  8
DEFPOINTS
 62
     0
 10
129.50000000000011
 20
123.1874994401938
 30
0.0
  0
ENDBLK
  5
1898E
  8
0
  0
BLOCK
  8
0
  2
*D9
 70
     1
 10
0.0
 20
0.0
 30
0.0
  3
*D9
  1

  0
LINE
  5
1D0AF
  8
2-1寸法
 62
     0
 10
290.50000000000023
 20
135.5901785954685
 30
0.0
 11
290.50000000000023
 21
122.6874994401938
 31
0.0
  0
LINE
  5
1D0B0
  8
2-1寸法
 62
     0
 10
297.50000000000023
 20
136.0901785954685
 30
0.0
 11
297.50000000000023
 21
122.6874994401938
 31
0.0
  0
LINE
  5
1D0B1
  8
2-1寸法
 62
     0
 10
291.50000000000023
 20
123.1874994401938
 30
0.0
 11
296.50000000000011
 21
123.1874994401938
 31
0.0
  0
INSERT
  5
1D0B2
  8
2-1寸法
 62
     0
  2
_DOT
 10
290.50000000000023
 20
123.1874994401938
 30
0.0
 50
180.0
  0
INSERT
  5
1D0B3
  8
2-1寸法
 62
     0
  2
_DOT
 10
297.50000000000023
 20
123.1874994401938
 30
0.0
  0
INSERT
  5
1D0B4
  8
0
  2
*U29
 10
0.0
 20
0.0
 30
0.0
  0
POINT
  5
1D0B5
  8
DEFPOINTS
 62
     0
 10
290.50000000000023
 20
138.5901785954685
 30
0.0
  0
POINT
  5
1D0B6
  8
DEFPOINTS
 62
     0
 10
297.50000000000023
 20
139.0901785954685
 30
0.0
  0
POINT
  5
1D0B7
  8
DEFPOINTS
 62
     0
 10
297.50000000000023
 20
123.1874994401938
 30
0.0
  0
ENDBLK
  5
1899A
  8
0
  0
BLOCK
  8
0
  2
*D10
 70
     1
 10
0.0
 20
0.0
 30
0.0
  3
*D10
  1

  0
LINE
  5
1CE9A
  8
2-1寸法
 62
     0
 10
190.00032874287751
 20
184.6848175234347
 30
0.0
 11
190.00032874287751
 21
220.30981752343479
 31
0.0
  0
LINE
  5
1CE9B
  8
2-1寸法
 62
     0
 10
230.00032874287771
 20
184.6848175234347
 30
0.0
 11
230.00032874287771
 21
220.30981752343479
 31
0.0
  0
LINE
  5
1CE9C
  8
2-1寸法
 62
     0
 10
191.00032874287751
 20
219.80981752343479
 30
0.0
 11
229.00032874287771
 21
219.80981752343479
 31
0.0
  0
INSERT
  5
1CE9D
  8
2-1寸法
 62
     0
  2
_DOT
 10
190.00032874287751
 20
219.80981752343479
 30
0.0
 50
180.0
  0
INSERT
  5
1CE9E
  8
2-1寸法
 62
     0
  2
_DOT
 10
230.00032874287771
 20
219.80981752343479
 30
0.0
  0
INSERT
  5
1CE9F
  8
0
  2
*U22
 10
0.0
 20
0.0
 30
0.0
  0
POINT
  5
1CEA0
  8
DEFPOINTS
 62
     0
 10
190.00032874287751
 20
181.6848175234347
 30
0.0
  0
POINT
  5
1CEA1
  8
DEFPOINTS
 62
     0
 10
230.00032874287771
 20
181.6848175234347
 30
0.0
  0
POINT
  5
1CEA2
  8
DEFPOINTS
 62
     0
 10
230.00032874287771
 20
219.80981752343479
 30
0.0
  0
ENDBLK
  5
189A6
  8
0
  0
BLOCK
  8
0
  2
*D11
 70
     1
 10
0.0
 20
0.0
 30
0.0
  3
*D11
  1

  0
LINE
  5
1D0B8
  8
2-1寸法
 62
     0
 10
125.5000000000001
 20
210.6875000000004
 30
0.0
 11
320.80796207626901
 21
210.6875000000004
 31
0.0
  0
LINE
  5
1D0B9
  8
2-1寸法
 62
     0
 10
300.53652075714092
 20
138.0875000000002
 30
0.0
 11
320.80796207626901
 21
138.08750000000009
 31
0.0
  0
LINE
  5
1D0BA
  8
2-1寸法
 62
     0
 10
320.30796207626901
 20
209.68750000000031
 30
0.0
 11
320.30796207626901
 21
139.08750000000009
 31
0.0
  0
INSERT
  5
1D0BB
  8
2-1寸法
 62
     0
  2
_DOT
 10
320.30796207626901
 20
210.6875000000004
 30
0.0
 50
90.0
  0
INSERT
  5
1D0BC
  8
2-1寸法
 62
     0
  2
_DOT
 10
320.30796207626901
 20
138.08750000000009
 30
0.0
 50
270.0
  0
INSERT
  5
1D0BD
  8
0
  2
*U30
 10
0.0
 20
0.0
 30
0.0
  0
POINT
  5
1D0BE
  8
DEFPOINTS
 62
     0
 10
122.5000000000001
 20
210.6875000000004
 30
0.0
  0
POINT
  5
1D0BF
  8
DEFPOINTS
 62
     0
 10
297.53652075714081
 20
138.0875000000002
 30
0.0
  0
POINT
  5
1D0C0
  8
DEFPOINTS
 62
     0
 10
320.30796207626901
 20
138.08750000000009
 30
0.0
  0
ENDBLK
  5
1A5A2
  8
0
  0
BLOCK
  8
0
  2
*D12
 70
     1
 10
0.0
 20
0.0
 30
0.0
  3
*D12
  1

  0
LINE
  5
1CEAC
  8
2-1寸法
 62
     0
 10
122.5000000000001
 20
213.6875000000002
 30
0.0
 11
122.5000000000001
 21
230.30981752343479
 31
0.0
  0
LINE
  5
1CEAD
  8
2-1寸法
 62
     0
 10
297.50000000000023
 20
200.83362084472549
 30
0.0
 11
297.50000000000023
 21
230.30981752343479
 31
0.0
  0
LINE
  5
1CEAE
  8
2-1寸法
 62
     0
 10
123.5000000000001
 20
229.8098175234347
 30
0.0
 11
296.50000000000011
 21
229.8098175234347
 31
0.0
  0
INSERT
  5
1CEAF
  8
2-1寸法
 62
     0
  2
_DOT
 10
122.5000000000001
 20
229.8098175234347
 30
0.0
 50
180.0
  0
INSERT
  5
1CEB0
  8
2-1寸法
 62
     0
  2
_DOT
 10
297.50000000000023
 20
229.8098175234347
 30
0.0
  0
INSERT
  5
1CEB1
  8
0
  2
*U23
 10
0.0
 20
0.0
 30
0.0
  0
POINT
  5
1CEB2
  8
DEFPOINTS
 62
     0
 10
122.5000000000001
 20
210.68750000000011
 30
0.0
  0
POINT
  5
1CEB3
  8
DEFPOINTS
 62
     0
 10
297.50000000000023
 20
197.83362084472549
 30
0.0
  0
POINT
  5
1CEB4
  8
DEFPOINTS
 62
     0
 10
297.50000000000023
 20
229.8098175234347
 30
0.0
  0
ENDBLK
  5
1A61E
  8
0
  0
BLOCK
  8
0
  2
*D13
 70
     1
 10
0.0
 20
0.0
 30
0.0
  3
*D13
  1

  0
LINE
  5
1CEB5
  8
2-1寸法
 62
     0
 10
190.00032874287751
 20
184.75248236229351
 30
0.0
 11
190.00032874287751
 21
220.30981752343479
 31
0.0
  0
LINE
  5
1CEB6
  8
2-1寸法
 62
     0
 10
122.5000000000001
 20
213.6875000000002
 30
0.0
 11
122.5000000000001
 21
220.30981752343479
 31
0.0
  0
LINE
  5
1CEB7
  8
2-1寸法
 62
     0
 10
189.00032874287751
 20
219.80981752343479
 30
0.0
 11
123.5000000000001
 21
219.80981752343479
 31
0.0
  0
INSERT
  5
1CEB8
  8
2-1寸法
 62
     0
  2
_DOT
 10
190.00032874287751
 20
219.80981752343479
 30
0.0
  0
INSERT
  5
1CEB9
  8
2-1寸法
 62
     0
  2
_DOT
 10
122.5000000000001
 20
219.80981752343479
 30
0.0
 50
180.0
  0
INSERT
  5
1CEBA
  8
0
  2
*U24
 10
0.0
 20
0.0
 30
0.0
  0
POINT
  5
1CEBB
  8
DEFPOINTS
 62
     0
 10
190.00032874287751
 20
181.75248236229351
 30
0.0
  0
POINT
  5
1CEBC
  8
DEFPOINTS
 62
     0
 10
122.5000000000001
 20
210.68750000000011
 30
0.0
  0
POINT
  5
1CEBD
  8
DEFPOINTS
 62
     0
 10
122.5000000000001
 20
219.80981752343479
 30
0.0
  0
ENDBLK
  5
1C074
  8
0
  0
BLOCK
  8
0
  2
*D14
 70
     1
 10
0.0
 20
0.0
 30
0.0
  3
*D14
  1

  0
LINE
  5
1CEBE
  8
2-1寸法
 62
     0
 10
242.1263779099832
 20
181.6848175234347
 30
0.0
 11
244.6263779099832
 21
181.6848175234347
 31
0.0
  0
LINE
  5
1CEBF
  8
2-1寸法
 62
     0
 10
242.1263779099832
 20
177.18481752343459
 30
0.0
 11
244.6263779099832
 21
177.18481752343459
 31
0.0
  0
LINE
  5
1CEC0
  8
2-1寸法
 62
     0
 10
245.1263779099832
 20
180.68481752343459
 30
0.0
 11
245.1263779099832
 21
178.18481752343459
 31
0.0
  0
INSERT
  5
1CEC1
  8
0
  2
*U25
 10
0.0
 20
0.0
 30
0.0
  0
INSERT
  5
1CEC2
  8
2-1寸法
 62
     0
  2
_DOT
 10
245.1263779099832
 20
181.6848175234347
 30
0.0
 50
90.0
  0
INSERT
  5
1CEC3
  8
2-1寸法
 62
     0
  2
_DOT
 10
245.1263779099832
 20
177.18481752343459
 30
0.0
 50
270.0
  0
POINT
  5
1CEC4
  8
DEFPOINTS
 62
     0
 10
245.1263779099832
 20
181.6848175234347
 30
0.0
  0
POINT
  5
1CEC5
  8
DEFPOINTS
 62
     0
 10
245.1263779099832
 20
177.18481752343459
 30
0.0
  0
POINT
  5
1CEC6
  8
DEFPOINTS
 62
     0
 10
245.1263779099832
 20
177.18481752343459
 30
0.0
  0
ENDBLK
  5
1C0B9
  8
0
  0
BLOCK
  8
0
  2
_DOT
 70
     0
 10
0.0
 20
0.0
 30
0.0
  3
_DOT
  1

  0
POLYLINE
  5
1C9D9
  8
0
  6
BYBLOCK
 62
     0
 66
     1
 10
0.0
 20
0.0
 30
0.0
 70
     1
 40
0.5
 41
0.5
  0
VERTEX
  5
1D354
  8
0
  6
BYBLOCK
 62
     0
 10
-0.25
 20
0.0
 30
0.0
 42
1.0
  0
VERTEX
  5
1D355
  8
0
  6
BYBLOCK
 62
     0
 10
0.25
 20
0.0
 30
0.0
 42
1.0
  0
SEQEND
  5
1D356
  8
0
  6
BYBLOCK
 62
     0
  0
LINE
  5
1C9DA
  8
0
  6
BYBLOCK
 62
     0
 10
-0.5
 20
0.0
 30
0.0
 11
-1.0
 21
0.0
 31
0.0
  0
ENDBLK
  5
1C9DB
  8
0
  0
BLOCK
  8
0
  2
*U16
 70
     1
 10
0.0
 20
0.0
 30
0.0
  3
*U16
  1

  0
TEXT
  5
1D358
  8
2-1寸法
 62
     0
 10
275.4365482233502
 20
113.815181916759
 30
0.0
 40
3.0
  1
10
  0
ENDBLK
  5
1D35A
  8
0
  0
BLOCK
  8
0
  2
*U17
 70
     1
 10
0.0
 20
0.0
 30
0.0
  3
*U17
  1

  0
TEXT
  5
1D35C
  8
2-1寸法
 62
     0
 10
101.91152075714081
 20
170.0314086294419
 30
0.0
 40
3.0
  1
73.5
 50
90.0
  0
ENDBLK
  5
1D35E
  8
0
  0
BLOCK
  8
0
  2
*U18
 70
     1
 10
0.0
 20
0.0
 30
0.0
  3
*U18
  1

  0
TEXT
  5
1D360
  8
2-1寸法
 62
     0
 10
111.91152075714081
 20
155.2534898477158
 30
0.0
 40
3.0
  1
40
 50
90.0
  0
ENDBLK
  5
1D362
  8
0
  0
BLOCK
  8
0
  2
*U19
 70
     1
 10
0.0
 20
0.0
 30
0.0
  3
*U19
  1

  0
TEXT
  5
1D364
  8
2-1寸法
 62
     0
 10
127.9746192893403
 20
113.8124994401938
 30
0.0
 40
3.0
  1
15
  0
ENDBLK
  5
1D366
  8
0
  0
BLOCK
  8
0
  2
*U20
 70
     1
 10
0.0
 20
0.0
 30
0.0
  3
*U20
  1

  0
TEXT
  5
1D368
  8
2-1寸法
 62
     0
 10
202.00000000000011
 20
113.8124994401938
 30
0.0
 40
3.0
  1
135
  0
ENDBLK
  5
1D36A
  8
0
  0
BLOCK
  8
0
  2
*U21
 70
     1
 10
0.0
 20
0.0
 30
0.0
  3
*U21
  1

  0
TEXT
  5
1D36C
  8
2-1寸法
 62
     0
 10
125.032994923858
 20
123.8124994401938
 30
0.0
 40
3.0
  1
7
  0
ENDBLK
  5
1D36E
  8
0
  0
BLOCK
  8
0
  2
*U22
 70
     1
 10
0.0
 20
0.0
 30
0.0
  3
*U22
  1

  0
TEXT
  5
1D370
  8
2-1寸法
 62
     0
 10
208.06631859059331
 20
220.43481752343479
 30
0.0
 40
3.0
  1
40
  0
ENDBLK
  5
1D372
  8
0
  0
BLOCK
  8
0
  2
*U23
 70
     1
 10
0.0
 20
0.0
 30
0.0
  3
*U23
  1

  0
TEXT
  5
1D374
  8
2-1寸法
 62
     0
 10
207.0000000000002
 20
230.43481752343479
 30
0.0
 40
3.0
  1
175
  0
ENDBLK
  5
1D376
  8
0
  0
BLOCK
  8
0
  2
*U24
 70
     1
 10
0.0
 20
0.0
 30
0.0
  3
*U24
  1

  0
TEXT
  5
1D378
  8
2-1寸法
 62
     0
 10
152.35930142727639
 20
220.43481752343479
 30
0.0
 40
3.0
  1
67.5
  0
ENDBLK
  5
1D37A
  8
0
  0
BLOCK
  8
0
  2
*U25
 70
     1
 10
0.0
 20
0.0
 30
0.0
  3
*U25
  1

  0
TEXT
  5
1D37C
  8
2-1寸法
 62
     0
 10
244.5013779099832
 20
182.5642591478001
 30
0.0
 40
3.0
  1
4.5
 50
90.0
  0
ENDBLK
  5
1D37E
  8
0
  0
BLOCK
  8
0
  2
*U26
 70
     1
 10
0.0
 20
0.0
 30
0.0
  3
*U26
  1

  0
TEXT
  5
1D380
  8
2-1寸法
 62
     0
 10
311.91152075714092
 20
200.2845998947399
 30
0.0
 40
3.0
  1
12.9
 50
90.0
  0
ENDBLK
  5
1D382
  8
0
  0
BLOCK
  8
0
  2
*U27
 70
     1
 10
0.0
 20
0.0
 30
0.0
  3
*U27
  1

  0
TEXT
  5
1D384
  8
2-1寸法
 62
     0
 10
311.91152075714081
 20
164.10910978247259
 30
0.0
 40
3.0
  1
59.7
 50
90.0
  0
ENDBLK
  5
1D386
  8
0
  0
BLOCK
  8
0
  2
*U28
 70
     1
 10
0.0
 20
0.0
 30
0.0
  3
*U28
  1

  0
TEXT
  5
1D388
  8
2-1寸法
 62
     0
 10
287.9746192893403
 20
113.8124994401938
 30
0.0
 40
3.0
  1
15
  0
ENDBLK
  5
1D38A
  8
0
  0
BLOCK
  8
0
  2
*U29
 70
     1
 10
0.0
 20
0.0
 30
0.0
  3
*U29
  1

  0
TEXT
  5
1D38C
  8
2-1寸法
 62
     0
 10
293.0329949238581
 20
123.8124994401938
 30
0.0
 40
3.0
  1
7
  0
ENDBLK
  5
1D38E
  8
0
  0
BLOCK
  8
0
  2
*U30
 70
     1
 10
0.0
 20
0.0
 30
0.0
  3
*U30
  1

  0
TEXT
  5
1D390
  8
2-1寸法
 62
     0
 10
319.68296207626901
 20
170.47379441624389
 30
0.0
 40
3.0
  1
72.6
 50
90.0
  0
ENDBLK
  5
1D392
  8
0
  0
BLOCK
  8
0
  2
*U31
 70
     1
 10
0.0
 20
0.0
 30
0.0
  3
*U31
  1

  0
TEXT
  5
1D394
  8
2-1寸法
 10
101.91152075714081
 20
170.0314086294419
 30
0.0
 40
3.0
  1
73.5
 50
90.0
  0
ENDBLK
  5
1D396
  8
0
  0
BLOCK
  8
0
  2
*U32
 70
     1
 10
0.0
 20
0.0
 30
0.0
  3
*U32
  1

  0
TEXT
  5
1D398
  8
2-1寸法
 10
111.91152075714081
 20
155.2534898477158
 30
0.0
 40
3.0
  1
40
 50
90.0
  0
ENDBLK
  5
1D39A
  8
0
  0
BLOCK
  8
0
  2
*U33
 70
     1
 10
0.0
 20
0.0
 30
0.0
  3
*U33
  1

  0
TEXT
  5
1D39C
  8
2-1寸法
 10
311.91152075714081
 20
164.10910978247259
 30
0.0
 40
3.0
  1
59.7
 50
90.0
  0
ENDBLK
  5
1D39E
  8
0
  0
BLOCK
  8
0
  2
*U34
 70
     1
 10
0.0
 20
0.0
 30
0.0
  3
*U34
  1

  0
TEXT
  5
1D3A0
  8
2-1寸法
 10
311.91152075714092
 20
200.2845998947399
 30
0.0
 40
3.0
  1
12.9
 50
90.0
  0
ENDBLK
  5
1D3A2
  8
0
  0
BLOCK
  8
0
  2
*U35
 70
     1
 10
0.0
 20
0.0
 30
0.0
  3
*U35
  1

  0
TEXT
  5
1D3A4
  8
2-1寸法
 10
127.9746192893403
 20
113.8124994401938
 30
0.0
 40
3.0
  1
15
  0
ENDBLK
  5
1D3A6
  8
0
  0
BLOCK
  8
0
  2
*U36
 70
     1
 10
0.0
 20
0.0
 30
0.0
  3
*U36
  1

  0
TEXT
  5
1D3A8
  8
2-1寸法
 10
202.00000000000011
 20
113.8124994401938
 30
0.0
 40
3.0
  1
135
  0
ENDBLK
  5
1D3AA
  8
0
  0
BLOCK
  8
0
  2
*U37
 70
     1
 10
0.0
 20
0.0
 30
0.0
  3
*U37
  1

  0
TEXT
  5
1D3AC
  8
2-1寸法
 10
275.4365482233502
 20
113.815181916759
 30
0.0
 40
3.0
  1
10
  0
ENDBLK
  5
1D3AE
  8
0
  0
BLOCK
  8
0
  2
*U38
 70
     1
 10
0.0
 20
0.0
 30
0.0
  3
*U38
  1

  0
TEXT
  5
1D3B0
  8
2-1寸法
 10
287.9746192893403
 20
113.8124994401938
 30
0.0
 40
3.0
  1
15
  0
ENDBLK
  5
1D3B2
  8
0
  0
BLOCK
  8
0
  2
*U39
 70
     1
 10
0.0
 20
0.0
 30
0.0
  3
*U39
  1

  0
TEXT
  5
1D3B4
  8
2-1寸法
 10
125.032994923858
 20
123.8124994401938
 30
0.0
 40
3.0
  1
7
  0
ENDBLK
  5
1D3B6
  8
0
  0
BLOCK
  8
0
  2
*U40
 70
     1
 10
0.0
 20
0.0
 30
0.0
  3
*U40
  1

  0
TEXT
  5
1D3B8
  8
2-1寸法
 10
293.0329949238581
 20
123.8124994401938
 30
0.0
 40
3.0
  1
7
  0
ENDBLK
  5
1D3BA
  8
0
  0
BLOCK
  8
0
  2
*U41
 70
     1
 10
0.0
 20
0.0
 30
0.0
  3
*U41
  1

  0
TEXT
  5
1D3BC
  8
2-1寸法
 10
208.06631859059331
 20
220.43481752343479
 30
0.0
 40
3.0
  1
40
  0
ENDBLK
  5
1D3BE
  8
0
  0
BLOCK
  8
0
  2
*U42
 70
     1
 10
0.0
 20
0.0
 30
0.0
  3
*U42
  1

  0
TEXT
  5
1D3C0
  8
2-1寸法
 10
319.68296207626901
 20
170.47379441624389
 30
0.0
 40
3.0
  1
72.6
 50
90.0
  0
ENDBLK
  5
1D3C2
  8
0
  0
BLOCK
  8
0
  2
*U43
 70
     1
 10
0.0
 20
0.0
 30
0.0
  3
*U43
  1

  0
TEXT
  5
1D3C4
  8
2-1寸法
 10
207.0000000000002
 20
230.43481752343479
 30
0.0
 40
3.0
  1
175
  0
ENDBLK
  5
1D3C6
  8
0
  0
BLOCK
  8
0
  2
*U44
 70
     1
 10
0.0
 20
0.0
 30
0.0
  3
*U44
  1

  0
TEXT
  5
1D3C8
  8
2-1寸法
 10
152.35930142727639
 20
220.43481752343479
 30
0.0
 40
3.0
  1
67.5
  0
ENDBLK
  5
1D3CA
  8
0
  0
BLOCK
  8
0
  2
*U45
 70
     1
 10
0.0
 20
0.0
 30
0.0
  3
*U45
  1

  0
TEXT
  5
1D3CC
  8
2-1寸法
 10
244.5013779099832
 20
182.5642591478001
 30
0.0
 40
3.0
  1
4.5
 50
90.0
  0
ENDBLK
  5
1D3CE
  8
0
  0
ENDSEC
  0
SECTION
  2
ENTITIES
  0
TEXT
  5
1539B
  8
1-2図名
 10
150.5000000000002
 20
33.296562228626378
 30
0.0
 40
3.0
  1
〒105-0004東京都港区新橋5-8-11新橋エンタービル3Ｆ
1001
ACADANNOTATIVE
1000
AnnotativeData
1002
{
1070
     1
1070
     0
1002
}
  0
TEXT
  5
153A0
  8
1-2図名
 10
150.5000000000002
 20
27.992906195373848
 30
0.0
 40
3.0
  1
TEL.(03)3431-9713(代）  FAX.(03)3431-9708
1001
ACADANNOTATIVE
1000
AnnotativeData
1002
{
1070
     1
1070
     0
1002
}
  0
TEXT
  5
153A5
  8
1-2図名
 10
150.5000000000002
 20
17.35721090391587
 30
0.0
 40
3.0
  1
TEL.(048)932-3853(代）  FAX.(048)931-8164
1001
ACADANNOTATIVE
1000
AnnotativeData
1002
{
1070
     1
1070
     0
1002
}
  0
TEXT
  5
153AA
  8
1-2図名
 10
133.0000000000002
 20
22.660866937167949
 30
0.0
 40
3.0
  1
関東支店
1001
ACADANNOTATIVE
1000
AnnotativeData
1002
{
1070
     1
1070
     0
1002
}
  0
TEXT
  5
153AF
  8
1-2図名
 10
277.19543147208128
 20
22.999999999999829
 30
0.0
 40
7.0
  1
アルミ笠木　AUEシリーズ
 72
     4
 11
329.50000000000011
 21
26.499999999999829
 31
0.0
  0
TEXT
  5
153B0
  8
1-2図名
 10
16.169083815320391
 20
272.3197969543146
 30
0.0
 40
7.0
  1
品　番
 72
     4
 11
29.813753866081811
 21
275.49999999999989
 31
0.0
1001
ACADANNOTATIVE
1000
AnnotativeData
1002
{
1070
     1
1070
     0
1002
}
  0
LINE
  5
153B5
  8
DEFPOINTS
 10
9.8000000000001801
 20
286.19999999999999
 30
0.0
 11
9.8000000000001801
 21
10.80000000000018
 31
0.0
  0
LINE
  5
153B6
  8
DEFPOINTS
 10
410.20000000000022
 20
286.19999999999999
 30
0.0
 11
410.20000000000022
 21
10.80000000000007
 31
0.0
  0
LINE
  5
153B7
  8
DEFPOINTS
 10
9.8000000000001801
 20
10.80000000000001
 30
0.0
 11
410.20000000000022
 21
10.80000000000001
 31
0.0
  0
LINE
  5
153B8
  8
DEFPOINTS
 10
9.8000000000001801
 20
286.19999999999999
 30
0.0
 11
410.20000000000022
 21
286.19999999999999
 31
0.0
  0
TEXT
  5
153BC
  8
1-2図名
 10
133.0000000000002
 20
33.296562228626378
 30
0.0
 40
3.0
  1
本社
1001
ACADANNOTATIVE
1000
AnnotativeData
1002
{
1070
     1
1070
     0
1002
}
  0
TEXT
  5
153C1
  8
1-2図名
 10
150.5000000000002
 20
22.660866937167949
 30
0.0
 40
3.0
  1
〒340-0002埼玉県草加市青柳6-16-1
1001
ACADANNOTATIVE
1000
AnnotativeData
1002
{
1070
     1
1070
     0
1002
}
  0
TEXT
  5
153C6
  8
1-2図名
 10
71.394972140193488
 20
272.03553299492359
 30
0.0
 40
7.0
  1
AUE-175
 72
     4
 11
87.313753866081811
 21
275.49999999999972
 31
0.0
1001
ACADANNOTATIVE
1000
AnnotativeData
1002
{
1070
     1
1070
     0
1002
}
  0
ARC
  5
15EAA
  8
5-3図補助
 10
19.616437261666551
 20
24.938898118712721
 30
0.0
 40
0.8927184834083112
 50
87.542817716021645
 51
274.7221133393146
  0
ARC
  5
15EAB
  8
5-3図補助
 10
24.00563667827921
 20
24.938898118712721
 30
0.0
 40
0.8927184834083112
 50
262.56242898477029
 51
97.442590533284545
  0
CIRCLE
  5
15EAC
  8
5-3図補助
 10
21.848233470187811
 20
26.500000000000021
 30
0.0
 40
7.5081557790742028
  0
ARC
  5
15EAD
  8
5-3図補助
 10
21.848233470187811
 20
31.331981338575378
 30
0.0
 40
1.7110433468227679
 50
285.31550438120308
 51
255.16293116238211
  0
POLYLINE
  5
15EAE
  8
5-3図補助
 10
21.848233470188195
 20
28.137357523054384
 30
0.0
 66
     1
 70
     8
  0
VERTEX
  8
5-3図補助
  5
1D3CF
 10
21.8482
 20
28.1374
 30
0.000000
  70
    32
  0
VERTEX
  8
5-3図補助
  5
1D3D0
 10
21.7951
 20
28.1373
 30
0.000000
  70
    32
  0
VERTEX
  8
5-3図補助
  5
1D3D1
 10
21.7419
 20
28.1369
 30
0.000000
  70
    32
  0
VERTEX
  8
5-3図補助
  5
1D3D2
 10
21.6887
 20
28.1361
 30
0.000000
  70
    32
  0
VERTEX
  8
5-3図補助
  5
1D3D3
 10
21.6356
 20
28.1351
 30
0.000000
  70
    32
  0
VERTEX
  8
5-3図補助
  5
1D3D4
 10
21.5825
 20
28.1337
 30
0.000000
  70
    32
  0
VERTEX
  8
5-3図補助
  5
1D3D5
 10
21.5294
 20
28.1319
 30
0.000000
  70
    32
  0
VERTEX
  8
5-3図補助
  5
1D3D6
 10
21.4764
 20
28.1299
 30
0.000000
  70
    32
  0
VERTEX
  8
5-3図補助
  5
1D3D7
 10
21.4234
 20
28.1276
 30
0.000000
  70
    32
  0
VERTEX
  8
5-3図補助
  5
1D3D8
 10
21.3704
 20
28.1249
 30
0.000000
  70
    32
  0
VERTEX
  8
5-3図補助
  5
1D3D9
 10
21.3175
 20
28.1219
 30
0.000000
  70
    32
  0
VERTEX
  8
5-3図補助
  5
1D3DA
 10
21.2647
 20
28.1185
 30
0.000000
  70
    32
  0
VERTEX
  8
5-3図補助
  5
1D3DB
 10
21.2119
 20
28.1149
 30
0.000000
  70
    32
  0
VERTEX
  8
5-3図補助
  5
1D3DC
 10
21.1593
 20
28.1109
 30
0.000000
  70
    32
  0
VERTEX
  8
5-3図補助
  5
1D3DD
 10
21.1067
 20
28.1066
 30
0.000000
  70
    32
  0
VERTEX
  8
5-3図補助
  5
1D3DE
 10
21.0542
 20
28.1020
 30
0.000000
  70
    32
  0
VERTEX
  8
5-3図補助
  5
1D3DF
 10
21.0018
 20
28.0971
 30
0.000000
  70
    32
  0
VERTEX
  8
5-3図補助
  5
1D3E0
 10
20.9495
 20
28.0918
 30
0.000000
  70
    32
  0
VERTEX
  8
5-3図補助
  5
1D3E1
 10
20.8973
 20
28.0862
 30
0.000000
  70
    32
  0
VERTEX
  8
5-3図補助
  5
1D3E2
 10
20.8452
 20
28.0803
 30
0.000000
  70
    32
  0
VERTEX
  8
5-3図補助
  5
1D3E3
 10
20.7933
 20
28.0741
 30
0.000000
  70
    32
  0
VERTEX
  8
5-3図補助
  5
1D3E4
 10
20.7414
 20
28.0676
 30
0.000000
  70
    32
  0
VERTEX
  8
5-3図補助
  5
1D3E5
 10
20.6898
 20
28.0607
 30
0.000000
  70
    32
  0
VERTEX
  8
5-3図補助
  5
1D3E6
 10
20.6382
 20
28.0536
 30
0.000000
  70
    32
  0
VERTEX
  8
5-3図補助
  5
1D3E7
 10
20.5868
 20
28.0461
 30
0.000000
  70
    32
  0
VERTEX
  8
5-3図補助
  5
1D3E8
 10
20.5356
 20
28.0383
 30
0.000000
  70
    32
  0
VERTEX
  8
5-3図補助
  5
1D3E9
 10
20.4845
 20
28.0302
 30
0.000000
  70
    32
  0
VERTEX
  8
5-3図補助
  5
1D3EA
 10
20.4336
 20
28.0218
 30
0.000000
  70
    32
  0
VERTEX
  8
5-3図補助
  5
1D3EB
 10
20.3829
 20
28.0131
 30
0.000000
  70
    32
  0
VERTEX
  8
5-3図補助
  5
1D3EC
 10
20.3324
 20
28.0040
 30
0.000000
  70
    32
  0
VERTEX
  8
5-3図補助
  5
1D3ED
 10
20.2820
 20
27.9947
 30
0.000000
  70
    32
  0
VERTEX
  8
5-3図補助
  5
1D3EE
 10
20.2318
 20
27.9851
 30
0.000000
  70
    32
  0
VERTEX
  8
5-3図補助
  5
1D3EF
 10
20.1819
 20
27.9751
 30
0.000000
  70
    32
  0
VERTEX
  8
5-3図補助
  5
1D3F0
 10
20.1321
 20
27.9649
 30
0.000000
  70
    32
  0
VERTEX
  8
5-3図補助
  5
1D3F1
 10
20.0826
 20
27.9543
 30
0.000000
  70
    32
  0
VERTEX
  8
5-3図補助
  5
1D3F2
 10
20.0332
 20
27.9434
 30
0.000000
  70
    32
  0
VERTEX
  8
5-3図補助
  5
1D3F3
 10
19.9841
 20
27.9323
 30
0.000000
  70
    32
  0
VERTEX
  8
5-3図補助
  5
1D3F4
 10
19.9353
 20
27.9208
 30
0.000000
  70
    32
  0
VERTEX
  8
5-3図補助
  5
1D3F5
 10
19.8866
 20
27.9090
 30
0.000000
  70
    32
  0
VERTEX
  8
5-3図補助
  5
1D3F6
 10
19.8383
 20
27.8970
 30
0.000000
  70
    32
  0
VERTEX
  8
5-3図補助
  5
1D3F7
 10
19.7901
 20
27.8846
 30
0.000000
  70
    32
  0
VERTEX
  8
5-3図補助
  5
1D3F8
 10
19.7422
 20
27.8720
 30
0.000000
  70
    32
  0
VERTEX
  8
5-3図補助
  5
1D3F9
 10
19.6946
 20
27.8591
 30
0.000000
  70
    32
  0
VERTEX
  8
5-3図補助
  5
1D3FA
 10
19.6472
 20
27.8458
 30
0.000000
  70
    32
  0
VERTEX
  8
5-3図補助
  5
1D3FB
 10
19.6002
 20
27.8323
 30
0.000000
  70
    32
  0
VERTEX
  8
5-3図補助
  5
1D3FC
 10
19.5534
 20
27.8185
 30
0.000000
  70
    32
  0
VERTEX
  8
5-3図補助
  5
1D3FD
 10
19.5068
 20
27.8044
 30
0.000000
  70
    32
  0
VERTEX
  8
5-3図補助
  5
1D3FE
 10
19.4606
 20
27.7901
 30
0.000000
  70
    32
  0
VERTEX
  8
5-3図補助
  5
1D3FF
 10
19.4147
 20
27.7754
 30
0.000000
  70
    32
  0
VERTEX
  8
5-3図補助
  5
1D400
 10
19.3690
 20
27.7605
 30
0.000000
  70
    32
  0
VERTEX
  8
5-3図補助
  5
1D401
 10
19.3237
 20
27.7453
 30
0.000000
  70
    32
  0
VERTEX
  8
5-3図補助
  5
1D402
 10
19.2787
 20
27.7298
 30
0.000000
  70
    32
  0
VERTEX
  8
5-3図補助
  5
1D403
 10
19.2340
 20
27.7140
 30
0.000000
  70
    32
  0
VERTEX
  8
5-3図補助
  5
1D404
 10
19.1897
 20
27.6980
 30
0.000000
  70
    32
  0
VERTEX
  8
5-3図補助
  5
1D405
 10
19.1456
 20
27.6817
 30
0.000000
  70
    32
  0
VERTEX
  8
5-3図補助
  5
1D406
 10
19.1019
 20
27.6651
 30
0.000000
  70
    32
  0
VERTEX
  8
5-3図補助
  5
1D407
 10
19.0586
 20
27.6483
 30
0.000000
  70
    32
  0
VERTEX
  8
5-3図補助
  5
1D408
 10
19.0155
 20
27.6312
 30
0.000000
  70
    32
  0
VERTEX
  8
5-3図補助
  5
1D409
 10
18.9729
 20
27.6138
 30
0.000000
  70
    32
  0
VERTEX
  8
5-3図補助
  5
1D40A
 10
18.9306
 20
27.5962
 30
0.000000
  70
    32
  0
VERTEX
  8
5-3図補助
  5
1D40B
 10
18.8886
 20
27.5783
 30
0.000000
  70
    32
  0
VERTEX
  8
5-3図補助
  5
1D40C
 10
18.8471
 20
27.5602
 30
0.000000
  70
    32
  0
VERTEX
  8
5-3図補助
  5
1D40D
 10
18.8059
 20
27.5418
 30
0.000000
  70
    32
  0
VERTEX
  8
5-3図補助
  5
1D40E
 10
18.7650
 20
27.5232
 30
0.000000
  70
    32
  0
VERTEX
  8
5-3図補助
  5
1D40F
 10
18.7246
 20
27.5043
 30
0.000000
  70
    32
  0
VERTEX
  8
5-3図補助
  5
1D410
 10
18.6846
 20
27.4852
 30
0.000000
  70
    32
  0
VERTEX
  8
5-3図補助
  5
1D411
 10
18.6449
 20
27.4658
 30
0.000000
  70
    32
  0
VERTEX
  8
5-3図補助
  5
1D412
 10
18.6056
 20
27.4462
 30
0.000000
  70
    32
  0
VERTEX
  8
5-3図補助
  5
1D413
 10
18.5668
 20
27.4263
 30
0.000000
  70
    32
  0
VERTEX
  8
5-3図補助
  5
1D414
 10
18.5283
 20
27.4063
 30
0.000000
  70
    32
  0
VERTEX
  8
5-3図補助
  5
1D415
 10
18.4903
 20
27.3859
 30
0.000000
  70
    32
  0
VERTEX
  8
5-3図補助
  5
1D416
 10
18.4527
 20
27.3654
 30
0.000000
  70
    32
  0
VERTEX
  8
5-3図補助
  5
1D417
 10
18.4155
 20
27.3446
 30
0.000000
  70
    32
  0
VERTEX
  8
5-3図補助
  5
1D418
 10
18.3787
 20
27.3236
 30
0.000000
  70
    32
  0
VERTEX
  8
5-3図補助
  5
1D419
 10
18.3424
 20
27.3024
 30
0.000000
  70
    32
  0
VERTEX
  8
5-3図補助
  5
1D41A
 10
18.3065
 20
27.2809
 30
0.000000
  70
    32
  0
VERTEX
  8
5-3図補助
  5
1D41B
 10
18.2710
 20
27.2593
 30
0.000000
  70
    32
  0
VERTEX
  8
5-3図補助
  5
1D41C
 10
18.2360
 20
27.2374
 30
0.000000
  70
    32
  0
VERTEX
  8
5-3図補助
  5
1D41D
 10
18.2014
 20
27.2153
 30
0.000000
  70
    32
  0
VERTEX
  8
5-3図補助
  5
1D41E
 10
18.1673
 20
27.1930
 30
0.000000
  70
    32
  0
VERTEX
  8
5-3図補助
  5
1D41F
 10
18.1336
 20
27.1705
 30
0.000000
  70
    32
  0
VERTEX
  8
5-3図補助
  5
1D420
 10
18.1004
 20
27.1477
 30
0.000000
  70
    32
  0
VERTEX
  8
5-3図補助
  5
1D421
 10
18.0677
 20
27.1248
 30
0.000000
  70
    32
  0
VERTEX
  8
5-3図補助
  5
1D422
 10
18.0354
 20
27.1017
 30
0.000000
  70
    32
  0
VERTEX
  8
5-3図補助
  5
1D423
 10
18.0037
 20
27.0784
 30
0.000000
  70
    32
  0
VERTEX
  8
5-3図補助
  5
1D424
 10
17.9723
 20
27.0549
 30
0.000000
  70
    32
  0
VERTEX
  8
5-3図補助
  5
1D425
 10
17.9415
 20
27.0312
 30
0.000000
  70
    32
  0
VERTEX
  8
5-3図補助
  5
1D426
 10
17.9112
 20
27.0073
 30
0.000000
  70
    32
  0
VERTEX
  8
5-3図補助
  5
1D427
 10
17.8813
 20
26.9832
 30
0.000000
  70
    32
  0
VERTEX
  8
5-3図補助
  5
1D428
 10
17.8520
 20
26.9590
 30
0.000000
  70
    32
  0
VERTEX
  8
5-3図補助
  5
1D429
 10
17.8231
 20
26.9346
 30
0.000000
  70
    32
  0
VERTEX
  8
5-3図補助
  5
1D42A
 10
17.7947
 20
26.9100
 30
0.000000
  70
    32
  0
VERTEX
  8
5-3図補助
  5
1D42B
 10
17.7669
 20
26.8852
 30
0.000000
  70
    32
  0
VERTEX
  8
5-3図補助
  5
1D42C
 10
17.7395
 20
26.8603
 30
0.000000
  70
    32
  0
VERTEX
  8
5-3図補助
  5
1D42D
 10
17.7127
 20
26.8352
 30
0.000000
  70
    32
  0
VERTEX
  8
5-3図補助
  5
1D42E
 10
17.6864
 20
26.8099
 30
0.000000
  70
    32
  0
VERTEX
  8
5-3図補助
  5
1D42F
 10
17.6606
 20
26.7845
 30
0.000000
  70
    32
  0
VERTEX
  8
5-3図補助
  5
1D430
 10
17.6353
 20
26.7589
 30
0.000000
  70
    32
  0
VERTEX
  8
5-3図補助
  5
1D431
 10
17.6105
 20
26.7332
 30
0.000000
  70
    32
  0
VERTEX
  8
5-3図補助
  5
1D432
 10
17.5863
 20
26.7073
 30
0.000000
  70
    32
  0
VERTEX
  8
5-3図補助
  5
1D433
 10
17.5626
 20
26.6812
 30
0.000000
  70
    32
  0
VERTEX
  8
5-3図補助
  5
1D434
 10
17.5394
 20
26.6551
 30
0.000000
  70
    32
  0
VERTEX
  8
5-3図補助
  5
1D435
 10
17.5168
 20
26.6287
 30
0.000000
  70
    32
  0
VERTEX
  8
5-3図補助
  5
1D436
 10
17.4947
 20
26.6023
 30
0.000000
  70
    32
  0
VERTEX
  8
5-3図補助
  5
1D437
 10
17.4731
 20
26.5757
 30
0.000000
  70
    32
  0
VERTEX
  8
5-3図補助
  5
1D438
 10
17.4521
 20
26.5490
 30
0.000000
  70
    32
  0
VERTEX
  8
5-3図補助
  5
1D439
 10
17.4317
 20
26.5222
 30
0.000000
  70
    32
  0
VERTEX
  8
5-3図補助
  5
1D43A
 10
17.4118
 20
26.4952
 30
0.000000
  70
    32
  0
VERTEX
  8
5-3図補助
  5
1D43B
 10
17.3924
 20
26.4681
 30
0.000000
  70
    32
  0
VERTEX
  8
5-3図補助
  5
1D43C
 10
17.3736
 20
26.4409
 30
0.000000
  70
    32
  0
VERTEX
  8
5-3図補助
  5
1D43D
 10
17.3553
 20
26.4136
 30
0.000000
  70
    32
  0
VERTEX
  8
5-3図補助
  5
1D43E
 10
17.3376
 20
26.3862
 30
0.000000
  70
    32
  0
VERTEX
  8
5-3図補助
  5
1D43F
 10
17.3205
 20
26.3586
 30
0.000000
  70
    32
  0
VERTEX
  8
5-3図補助
  5
1D440
 10
17.3039
 20
26.3310
 30
0.000000
  70
    32
  0
VERTEX
  8
5-3図補助
  5
1D441
 10
17.2879
 20
26.3033
 30
0.000000
  70
    32
  0
VERTEX
  8
5-3図補助
  5
1D442
 10
17.2725
 20
26.2755
 30
0.000000
  70
    32
  0
VERTEX
  8
5-3図補助
  5
1D443
 10
17.2576
 20
26.2475
 30
0.000000
  70
    32
  0
VERTEX
  8
5-3図補助
  5
1D444
 10
17.2433
 20
26.2195
 30
0.000000
  70
    32
  0
VERTEX
  8
5-3図補助
  5
1D445
 10
17.2296
 20
26.1914
 30
0.000000
  70
    32
  0
VERTEX
  8
5-3図補助
  5
1D446
 10
17.2165
 20
26.1632
 30
0.000000
  70
    32
  0
VERTEX
  8
5-3図補助
  5
1D447
 10
17.2039
 20
26.1350
 30
0.000000
  70
    32
  0
VERTEX
  8
5-3図補助
  5
1D448
 10
17.1919
 20
26.1067
 30
0.000000
  70
    32
  0
VERTEX
  8
5-3図補助
  5
1D449
 10
17.1805
 20
26.0783
 30
0.000000
  70
    32
  0
VERTEX
  8
5-3図補助
  5
1D44A
 10
17.1697
 20
26.0498
 30
0.000000
  70
    32
  0
VERTEX
  8
5-3図補助
  5
1D44B
 10
17.1594
 20
26.0213
 30
0.000000
  70
    32
  0
VERTEX
  8
5-3図補助
  5
1D44C
 10
17.1498
 20
25.9927
 30
0.000000
  70
    32
  0
VERTEX
  8
5-3図補助
  5
1D44D
 10
17.1407
 20
25.9640
 30
0.000000
  70
    32
  0
VERTEX
  8
5-3図補助
  5
1D44E
 10
17.1322
 20
25.9353
 30
0.000000
  70
    32
  0
VERTEX
  8
5-3図補助
  5
1D44F
 10
17.1243
 20
25.9065
 30
0.000000
  70
    32
  0
SEQEND
  8
5-3図補助
  5
1D450
  0
POLYLINE
  5
15EAF
  8
5-3図補助
 10
17.124264817120771
 20
25.906544123718312
 30
0.0
 66
     1
 70
     8
  0
VERTEX
  8
5-3図補助
  5
1D451
 10
17.1243
 20
25.9065
 30
0.000000
  70
    32
  0
VERTEX
  8
5-3図補助
  5
1D452
 10
17.1257
 20
25.7997
 30
0.000000
  70
    32
  0
VERTEX
  8
5-3図補助
  5
1D453
 10
17.1299
 20
25.6930
 30
0.000000
  70
    32
  0
VERTEX
  8
5-3図補助
  5
1D454
 10
17.1370
 20
25.5863
 30
0.000000
  70
    32
  0
VERTEX
  8
5-3図補助
  5
1D455
 10
17.1469
 20
25.4799
 30
0.000000
  70
    32
  0
VERTEX
  8
5-3図補助
  5
1D456
 10
17.1596
 20
25.3737
 30
0.000000
  70
    32
  0
VERTEX
  8
5-3図補助
  5
1D457
 10
17.1752
 20
25.2678
 30
0.000000
  70
    32
  0
VERTEX
  8
5-3図補助
  5
1D458
 10
17.1936
 20
25.1624
 30
0.000000
  70
    32
  0
VERTEX
  8
5-3図補助
  5
1D459
 10
17.2148
 20
25.0573
 30
0.000000
  70
    32
  0
VERTEX
  8
5-3図補助
  5
1D45A
 10
17.2388
 20
24.9528
 30
0.000000
  70
    32
  0
VERTEX
  8
5-3図補助
  5
1D45B
 10
17.2656
 20
24.8489
 30
0.000000
  70
    32
  0
VERTEX
  8
5-3図補助
  5
1D45C
 10
17.2951
 20
24.7456
 30
0.000000
  70
    32
  0
VERTEX
  8
5-3図補助
  5
1D45D
 10
17.3274
 20
24.6429
 30
0.000000
  70
    32
  0
VERTEX
  8
5-3図補助
  5
1D45E
 10
17.3624
 20
24.5411
 30
0.000000
  70
    32
  0
VERTEX
  8
5-3図補助
  5
1D45F
 10
17.4001
 20
24.4401
 30
0.000000
  70
    32
  0
VERTEX
  8
5-3図補助
  5
1D460
 10
17.4404
 20
24.3399
 30
0.000000
  70
    32
  0
VERTEX
  8
5-3図補助
  5
1D461
 10
17.4835
 20
24.2407
 30
0.000000
  70
    32
  0
VERTEX
  8
5-3図補助
  5
1D462
 10
17.5291
 20
24.1425
 30
0.000000
  70
    32
  0
VERTEX
  8
5-3図補助
  5
1D463
 10
17.5774
 20
24.0454
 30
0.000000
  70
    32
  0
VERTEX
  8
5-3図補助
  5
1D464
 10
17.6282
 20
23.9494
 30
0.000000
  70
    32
  0
VERTEX
  8
5-3図補助
  5
1D465
 10
17.6816
 20
23.8545
 30
0.000000
  70
    32
  0
VERTEX
  8
5-3図補助
  5
1D466
 10
17.7375
 20
23.7609
 30
0.000000
  70
    32
  0
VERTEX
  8
5-3図補助
  5
1D467
 10
17.7959
 20
23.6686
 30
0.000000
  70
    32
  0
VERTEX
  8
5-3図補助
  5
1D468
 10
17.8567
 20
23.5777
 30
0.000000
  70
    32
  0
VERTEX
  8
5-3図補助
  5
1D469
 10
17.9199
 20
23.4881
 30
0.000000
  70
    32
  0
VERTEX
  8
5-3図補助
  5
1D46A
 10
17.9855
 20
23.4000
 30
0.000000
  70
    32
  0
VERTEX
  8
5-3図補助
  5
1D46B
 10
18.0534
 20
23.3134
 30
0.000000
  70
    32
  0
VERTEX
  8
5-3図補助
  5
1D46C
 10
18.1236
 20
23.2284
 30
0.000000
  70
    32
  0
VERTEX
  8
5-3図補助
  5
1D46D
 10
18.1961
 20
23.1450
 30
0.000000
  70
    32
  0
VERTEX
  8
5-3図補助
  5
1D46E
 10
18.2707
 20
23.0632
 30
0.000000
  70
    32
  0
VERTEX
  8
5-3図補助
  5
1D46F
 10
18.3475
 20
22.9832
 30
0.000000
  70
    32
  0
VERTEX
  8
5-3図補助
  5
1D470
 10
18.4264
 20
22.9049
 30
0.000000
  70
    32
  0
VERTEX
  8
5-3図補助
  5
1D471
 10
18.5074
 20
22.8284
 30
0.000000
  70
    32
  0
VERTEX
  8
5-3図補助
  5
1D472
 10
18.5904
 20
22.7538
 30
0.000000
  70
    32
  0
VERTEX
  8
5-3図補助
  5
1D473
 10
18.6753
 20
22.6811
 30
0.000000
  70
    32
  0
VERTEX
  8
5-3図補助
  5
1D474
 10
18.7622
 20
22.6103
 30
0.000000
  70
    32
  0
VERTEX
  8
5-3図補助
  5
1D475
 10
18.8509
 20
22.5415
 30
0.000000
  70
    32
  0
VERTEX
  8
5-3図補助
  5
1D476
 10
18.9414
 20
22.4747
 30
0.000000
  70
    32
  0
VERTEX
  8
5-3図補助
  5
1D477
 10
19.0337
 20
22.4100
 30
0.000000
  70
    32
  0
VERTEX
  8
5-3図補助
  5
1D478
 10
19.1277
 20
22.3474
 30
0.000000
  70
    32
  0
VERTEX
  8
5-3図補助
  5
1D479
 10
19.2233
 20
22.2870
 30
0.000000
  70
    32
  0
VERTEX
  8
5-3図補助
  5
1D47A
 10
19.3205
 20
22.2287
 30
0.000000
  70
    32
  0
VERTEX
  8
5-3図補助
  5
1D47B
 10
19.4192
 20
22.1727
 30
0.000000
  70
    32
  0
VERTEX
  8
5-3図補助
  5
1D47C
 10
19.5194
 20
22.1189
 30
0.000000
  70
    32
  0
VERTEX
  8
5-3図補助
  5
1D47D
 10
19.6210
 20
22.0674
 30
0.000000
  70
    32
  0
VERTEX
  8
5-3図補助
  5
1D47E
 10
19.7239
 20
22.0181
 30
0.000000
  70
    32
  0
VERTEX
  8
5-3図補助
  5
1D47F
 10
19.8281
 20
21.9713
 30
0.000000
  70
    32
  0
VERTEX
  8
5-3図補助
  5
1D480
 10
19.9336
 20
21.9268
 30
0.000000
  70
    32
  0
VERTEX
  8
5-3図補助
  5
1D481
 10
20.0401
 20
21.8847
 30
0.000000
  70
    32
  0
VERTEX
  8
5-3図補助
  5
1D482
 10
20.1478
 20
21.8450
 30
0.000000
  70
    32
  0
VERTEX
  8
5-3図補助
  5
1D483
 10
20.2565
 20
21.8078
 30
0.000000
  70
    32
  0
VERTEX
  8
5-3図補助
  5
1D484
 10
20.3661
 20
21.7730
 30
0.000000
  70
    32
  0
VERTEX
  8
5-3図補助
  5
1D485
 10
20.4767
 20
21.7408
 30
0.000000
  70
    32
  0
VERTEX
  8
5-3図補助
  5
1D486
 10
20.5881
 20
21.7110
 30
0.000000
  70
    32
  0
VERTEX
  8
5-3図補助
  5
1D487
 10
20.7002
 20
21.6838
 30
0.000000
  70
    32
  0
VERTEX
  8
5-3図補助
  5
1D488
 10
20.8130
 20
21.6591
 30
0.000000
  70
    32
  0
VERTEX
  8
5-3図補助
  5
1D489
 10
20.9265
 20
21.6369
 30
0.000000
  70
    32
  0
VERTEX
  8
5-3図補助
  5
1D48A
 10
21.0405
 20
21.6174
 30
0.000000
  70
    32
  0
VERTEX
  8
5-3図補助
  5
1D48B
 10
21.1550
 20
21.6004
 30
0.000000
  70
    32
  0
VERTEX
  8
5-3図補助
  5
1D48C
 10
21.2699
 20
21.5860
 30
0.000000
  70
    32
  0
VERTEX
  8
5-3図補助
  5
1D48D
 10
21.3851
 20
21.5743
 30
0.000000
  70
    32
  0
VERTEX
  8
5-3図補助
  5
1D48E
 10
21.5007
 20
21.5651
 30
0.000000
  70
    32
  0
VERTEX
  8
5-3図補助
  5
1D48F
 10
21.6164
 20
21.5585
 30
0.000000
  70
    32
  0
VERTEX
  8
5-3図補助
  5
1D490
 10
21.7323
 20
21.5546
 30
0.000000
  70
    32
  0
VERTEX
  8
5-3図補助
  5
1D491
 10
21.8482
 20
21.5533
 30
0.000000
  70
    32
  0
VERTEX
  8
5-3図補助
  5
1D492
 10
21.9642
 20
21.5546
 30
0.000000
  70
    32
  0
VERTEX
  8
5-3図補助
  5
1D493
 10
22.0801
 20
21.5585
 30
0.000000
  70
    32
  0
VERTEX
  8
5-3図補助
  5
1D494
 10
22.1958
 20
21.5651
 30
0.000000
  70
    32
  0
VERTEX
  8
5-3図補助
  5
1D495
 10
22.3113
 20
21.5743
 30
0.000000
  70
    32
  0
VERTEX
  8
5-3図補助
  5
1D496
 10
22.4266
 20
21.5860
 30
0.000000
  70
    32
  0
VERTEX
  8
5-3図補助
  5
1D497
 10
22.5415
 20
21.6004
 30
0.000000
  70
    32
  0
VERTEX
  8
5-3図補助
  5
1D498
 10
22.6560
 20
21.6174
 30
0.000000
  70
    32
  0
VERTEX
  8
5-3図補助
  5
1D499
 10
22.7700
 20
21.6369
 30
0.000000
  70
    32
  0
VERTEX
  8
5-3図補助
  5
1D49A
 10
22.8834
 20
21.6591
 30
0.000000
  70
    32
  0
VERTEX
  8
5-3図補助
  5
1D49B
 10
22.9963
 20
21.6838
 30
0.000000
  70
    32
  0
VERTEX
  8
5-3図補助
  5
1D49C
 10
23.1084
 20
21.7110
 30
0.000000
  70
    32
  0
VERTEX
  8
5-3図補助
  5
1D49D
 10
23.2198
 20
21.7408
 30
0.000000
  70
    32
  0
VERTEX
  8
5-3図補助
  5
1D49E
 10
23.3303
 20
21.7730
 30
0.000000
  70
    32
  0
VERTEX
  8
5-3図補助
  5
1D49F
 10
23.4400
 20
21.8078
 30
0.000000
  70
    32
  0
VERTEX
  8
5-3図補助
  5
1D4A0
 10
23.5487
 20
21.8450
 30
0.000000
  70
    32
  0
VERTEX
  8
5-3図補助
  5
1D4A1
 10
23.6563
 20
21.8847
 30
0.000000
  70
    32
  0
VERTEX
  8
5-3図補助
  5
1D4A2
 10
23.7629
 20
21.9268
 30
0.000000
  70
    32
  0
VERTEX
  8
5-3図補助
  5
1D4A3
 10
23.8683
 20
21.9713
 30
0.000000
  70
    32
  0
VERTEX
  8
5-3図補助
  5
1D4A4
 10
23.9725
 20
22.0181
 30
0.000000
  70
    32
  0
VERTEX
  8
5-3図補助
  5
1D4A5
 10
24.0755
 20
22.0674
 30
0.000000
  70
    32
  0
VERTEX
  8
5-3図補助
  5
1D4A6
 10
24.1771
 20
22.1189
 30
0.000000
  70
    32
  0
VERTEX
  8
5-3図補助
  5
1D4A7
 10
24.2772
 20
22.1727
 30
0.000000
  70
    32
  0
VERTEX
  8
5-3図補助
  5
1D4A8
 10
24.3760
 20
22.2287
 30
0.000000
  70
    32
  0
VERTEX
  8
5-3図補助
  5
1D4A9
 10
24.4732
 20
22.2870
 30
0.000000
  70
    32
  0
VERTEX
  8
5-3図補助
  5
1D4AA
 10
24.5688
 20
22.3474
 30
0.000000
  70
    32
  0
VERTEX
  8
5-3図補助
  5
1D4AB
 10
24.6627
 20
22.4100
 30
0.000000
  70
    32
  0
VERTEX
  8
5-3図補助
  5
1D4AC
 10
24.7550
 20
22.4747
 30
0.000000
  70
    32
  0
VERTEX
  8
5-3図補助
  5
1D4AD
 10
24.8455
 20
22.5415
 30
0.000000
  70
    32
  0
VERTEX
  8
5-3図補助
  5
1D4AE
 10
24.9343
 20
22.6103
 30
0.000000
  70
    32
  0
VERTEX
  8
5-3図補助
  5
1D4AF
 10
25.0211
 20
22.6811
 30
0.000000
  70
    32
  0
VERTEX
  8
5-3図補助
  5
1D4B0
 10
25.1061
 20
22.7538
 30
0.000000
  70
    32
  0
VERTEX
  8
5-3図補助
  5
1D4B1
 10
25.1891
 20
22.8284
 30
0.000000
  70
    32
  0
VERTEX
  8
5-3図補助
  5
1D4B2
 10
25.2700
 20
22.9049
 30
0.000000
  70
    32
  0
VERTEX
  8
5-3図補助
  5
1D4B3
 10
25.3489
 20
22.9832
 30
0.000000
  70
    32
  0
VERTEX
  8
5-3図補助
  5
1D4B4
 10
25.4257
 20
23.0632
 30
0.000000
  70
    32
  0
VERTEX
  8
5-3図補助
  5
1D4B5
 10
25.5004
 20
23.1450
 30
0.000000
  70
    32
  0
VERTEX
  8
5-3図補助
  5
1D4B6
 10
25.5728
 20
23.2284
 30
0.000000
  70
    32
  0
VERTEX
  8
5-3図補助
  5
1D4B7
 10
25.6430
 20
23.3134
 30
0.000000
  70
    32
  0
VERTEX
  8
5-3図補助
  5
1D4B8
 10
25.7110
 20
23.4000
 30
0.000000
  70
    32
  0
VERTEX
  8
5-3図補助
  5
1D4B9
 10
25.7765
 20
23.4881
 30
0.000000
  70
    32
  0
VERTEX
  8
5-3図補助
  5
1D4BA
 10
25.8398
 20
23.5777
 30
0.000000
  70
    32
  0
VERTEX
  8
5-3図補助
  5
1D4BB
 10
25.9006
 20
23.6686
 30
0.000000
  70
    32
  0
VERTEX
  8
5-3図補助
  5
1D4BC
 10
25.9589
 20
23.7609
 30
0.000000
  70
    32
  0
VERTEX
  8
5-3図補助
  5
1D4BD
 10
26.0148
 20
23.8545
 30
0.000000
  70
    32
  0
VERTEX
  8
5-3図補助
  5
1D4BE
 10
26.0682
 20
23.9494
 30
0.000000
  70
    32
  0
VERTEX
  8
5-3図補助
  5
1D4BF
 10
26.1191
 20
24.0454
 30
0.000000
  70
    32
  0
VERTEX
  8
5-3図補助
  5
1D4C0
 10
26.1673
 20
24.1425
 30
0.000000
  70
    32
  0
VERTEX
  8
5-3図補助
  5
1D4C1
 10
26.2130
 20
24.2407
 30
0.000000
  70
    32
  0
VERTEX
  8
5-3図補助
  5
1D4C2
 10
26.2560
 20
24.3399
 30
0.000000
  70
    32
  0
VERTEX
  8
5-3図補助
  5
1D4C3
 10
26.2964
 20
24.4401
 30
0.000000
  70
    32
  0
VERTEX
  8
5-3図補助
  5
1D4C4
 10
26.3341
 20
24.5411
 30
0.000000
  70
    32
  0
VERTEX
  8
5-3図補助
  5
1D4C5
 10
26.3691
 20
24.6429
 30
0.000000
  70
    32
  0
VERTEX
  8
5-3図補助
  5
1D4C6
 10
26.4014
 20
24.7456
 30
0.000000
  70
    32
  0
VERTEX
  8
5-3図補助
  5
1D4C7
 10
26.4309
 20
24.8489
 30
0.000000
  70
    32
  0
VERTEX
  8
5-3図補助
  5
1D4C8
 10
26.4577
 20
24.9528
 30
0.000000
  70
    32
  0
VERTEX
  8
5-3図補助
  5
1D4C9
 10
26.4817
 20
25.0573
 30
0.000000
  70
    32
  0
VERTEX
  8
5-3図補助
  5
1D4CA
 10
26.5029
 20
25.1624
 30
0.000000
  70
    32
  0
VERTEX
  8
5-3図補助
  5
1D4CB
 10
26.5213
 20
25.2678
 30
0.000000
  70
    32
  0
VERTEX
  8
5-3図補助
  5
1D4CC
 10
26.5368
 20
25.3737
 30
0.000000
  70
    32
  0
VERTEX
  8
5-3図補助
  5
1D4CD
 10
26.5496
 20
25.4799
 30
0.000000
  70
    32
  0
VERTEX
  8
5-3図補助
  5
1D4CE
 10
26.5595
 20
25.5863
 30
0.000000
  70
    32
  0
VERTEX
  8
5-3図補助
  5
1D4CF
 10
26.5666
 20
25.6930
 30
0.000000
  70
    32
  0
VERTEX
  8
5-3図補助
  5
1D4D0
 10
26.5708
 20
25.7997
 30
0.000000
  70
    32
  0
VERTEX
  8
5-3図補助
  5
1D4D1
 10
26.5722
 20
25.9065
 30
0.000000
  70
    32
  0
SEQEND
  8
5-3図補助
  5
1D4D2
  0
POLYLINE
  5
15EB0
  8
5-3図補助
 66
     1
 10
0.0
 20
0.0
 30
0.0
 70
   132
 75
     6
  0
VERTEX
  5
15EB1
  8
5-3図補助
 10
15.66379220020681
 20
25.90654412371892
 30
0.0
 70
    16
  0
VERTEX
  5
15EB2
  8
5-3図補助
 10
15.66379220020681
 20
25.90654412371892
 30
0.0
 70
     8
  0
VERTEX
  5
15EB3
  8
5-3図補助
 10
15.663792112567551
 20
25.906127494918469
 30
0.0
 70
     8
  0
VERTEX
  5
15EB4
  8
5-3図補助
 10
15.663792064764509
 20
25.905710866088022
 30
0.0
 70
     8
  0
VERTEX
  5
15EB5
  8
5-3図補助
 10
15.663792056797339
 20
25.861125810905278
 30
0.0
 70
     8
  0
VERTEX
  5
15EB6
  8
5-3図補助
 10
15.667018915458829
 20
25.639867714560431
 30
0.0
 70
     8
  0
VERTEX
  5
15EB7
  8
5-3図補助
 10
15.69651375306173
 20
25.305423218122218
 30
0.0
 70
     8
  0
VERTEX
  5
15EB8
  8
5-3図補助
 10
15.784306972498729
 20
24.739833841742119
 30
0.0
 70
     8
  0
VERTEX
  5
15EB9
  8
5-3図補助
 10
15.92515400609911
 20
24.22233440187804
 30
0.0
 70
     8
  0
VERTEX
  5
15EBA
  8
5-3図補助
 10
16.182108172277388
 20
23.567550093312459
 30
0.0
 70
     8
  0
VERTEX
  5
15EBB
  8
5-3図補助
 10
16.445542811692139
 20
23.06935924973234
 30
0.0
 70
     8
  0
VERTEX
  5
15EBC
  8
5-3図補助
 10
16.842406550759069
 20
22.485810465762391
 30
0.0
 70
     8
  0
VERTEX
  5
15EBD
  8
5-3図補助
 10
17.209595451480052
 20
22.055402126574531
 30
0.0
 70
     8
  0
VERTEX
  5
15EBE
  8
5-3図補助
 10
17.724683773514151
 20
21.568473637679819
 30
0.0
 70
     8
  0
VERTEX
  5
15EBF
  8
5-3図補助
 10
18.176513795840741
 20
21.223602815951629
 30
0.0
 70
     8
  0
VERTEX
  5
15EC0
  8
5-3図補助
 10
18.78428592826392
 20
20.85235286027423
 30
0.0
 70
     8
  0
VERTEX
  5
15EC1
  8
5-3図補助
 10
19.299362701445741
 20
20.605862968599379
 30
0.0
 70
     8
  0
VERTEX
  5
15EC2
  8
5-3図補助
 10
19.97221393966732
 20
20.363517231036582
 30
0.0
 70
     8
  0
VERTEX
  5
15EC3
  8
5-3図補助
 10
20.52796762622383
 20
20.223862678588571
 30
0.0
 70
     8
  0
VERTEX
  5
15EC4
  8
5-3図補助
 10
21.237260852974281
 20
20.118484212673671
 30
0.0
 70
     8
  0
VERTEX
  5
15EC5
  8
5-3図補助
 10
21.810553424277959
 20
20.09020682409075
 30
0.0
 70
     8
  0
VERTEX
  5
15EC6
  8
5-3図補助
 10
22.52718806968894
 20
20.12517141595546
 30
0.0
 70
     8
  0
VERTEX
  5
15EC7
  8
5-3図補助
 10
23.094671118597741
 20
20.209170315211018
 30
0.0
 70
     8
  0
VERTEX
  5
15EC8
  8
5-3図補助
 10
23.78946112066787
 20
20.383366269452971
 30
0.0
 70
     8
  0
VERTEX
  5
15EC9
  8
5-3図補助
 10
24.32785396191596
 20
20.576950660531701
 30
0.0
 70
     8
  0
VERTEX
  5
15ECA
  8
5-3図補助
 10
24.971874961954331
 20
20.88471343538119
 30
0.0
 70
     8
  0
VERTEX
  5
15ECB
  8
5-3図補助
 10
25.458267009844828
 20
21.18144361617103
 30
0.0
 70
     8
  0
VERTEX
  5
15ECC
  8
5-3図補助
 10
26.023303016115982
 20
21.61221872561654
 30
0.0
 70
     8
  0
VERTEX
  5
15ECD
  8
5-3図補助
 10
26.435608134248721
 20
22.00152687371817
 30
0.0
 70
     8
  0
VERTEX
  5
15ECE
  8
5-3図補助
 10
26.894909953565069
 20
22.539274328851061
 30
0.0
 70
     8
  0
VERTEX
  5
15ECF
  8
5-3図補助
 10
27.212689484104001
 20
23.005928991169089
 30
0.0
 70
     8
  0
VERTEX
  5
15ED0
  8
5-3図補助
 10
27.542356187295599
 20
23.628469876751321
 30
0.0
 70
     8
  0
VERTEX
  5
15ED1
  8
5-3図補助
 10
27.74824951306325
 20
24.152178830147161
 30
0.0
 70
     8
  0
VERTEX
  5
15ED2
  8
5-3図補助
 10
27.929428085543829
 20
24.831045854467021
 30
0.0
 70
     8
  0
VERTEX
  5
15ED3
  8
5-3図補助
 10
28.00930760239229
 20
25.326016981471948
 30
0.0
 70
     8
  0
VERTEX
  5
15ED4
  8
5-3図補助
 10
28.0295261413386
 20
25.72356003703263
 30
0.0
 70
     8
  0
VERTEX
  5
15ED5
  8
5-3図補助
 10
28.032537385108089
 20
25.85012989413169
 30
0.0
 70
     8
  0
VERTEX
  5
15ED6
  8
5-3図補助
 10
28.032664301628099
 20
25.90654412371892
 30
0.0
 70
     8
  0
VERTEX
  5
15ED7
  8
5-3図補助
 10
15.663792104600381
 20
25.906127494924949
 30
0.0
 70
    16
  0
VERTEX
  5
15ED8
  8
5-3図補助
 10
15.663792056797339
 20
25.905710866092608
 30
0.0
 70
    16
  0
VERTEX
  5
15ED9
  8
5-3図補助
 10
15.663792056797339
 20
25.90529423723213
 30
0.0
 70
    16
  0
VERTEX
  5
15EDA
  8
5-3図補助
 10
15.663792056797339
 20
25.639867050411421
 30
0.0
 70
    16
  0
VERTEX
  5
15EDB
  8
5-3図補助
 10
15.68315320876663
 20
25.374443848485289
 30
0.0
 70
    16
  0
VERTEX
  5
15EDC
  8
5-3図補助
 10
15.782677626505141
 20
24.69489686437921
 30
0.0
 70
    16
  0
VERTEX
  5
15EDD
  8
5-3図補助
 10
15.891978120206559
 20
24.28497174445058
 30
0.0
 70
    16
  0
VERTEX
  5
15EDE
  8
5-3図補助
 10
16.200333929264289
 20
23.499222569086012
 30
0.0
 70
    16
  0
VERTEX
  5
15EDF
  8
5-3図補助
 10
16.399335196399889
 20
23.12343853908029
 30
0.0
 70
    16
  0
VERTEX
  5
15EE0
  8
5-3図補助
 10
16.875582155287951
 20
22.423178772986851
 30
0.0
 70
    16
  0
VERTEX
  5
15EE1
  8
5-3図補助
 10
17.15277548700103
 20
22.098709163546651
 30
0.0
 70
    16
  0
VERTEX
  5
15EE2
  8
5-3図補助
 10
17.770888605588901
 20
21.51439733227388
 30
0.0
 70
    16
  0
VERTEX
  5
15EE3
  8
5-3図補助
 10
18.111772731729641
 20
21.25454333343728
 30
0.0
 70
    16
  0
VERTEX
  5
15EE4
  8
5-3図補助
 10
18.841103242536651
 20
20.80904622968799
 30
0.0
 70
    16
  0
VERTEX
  5
15EE5
  8
5-3図補助
 10
19.229529867706582
 20
20.623388909456501
 30
0.0
 70
    16
  0
VERTEX
  5
15EE6
  8
5-3図補助
 10
20.036953495312471
 20
20.332575944082599
 30
0.0
 70
    16
  0
VERTEX
  5
15EE7
  8
5-3図補助
 10
20.455939789047211
 20
20.22741070043255
 30
0.0
 70
    16
  0
VERTEX
  5
15EE8
  8
5-3図補助
 10
21.307093105842021
 20
20.100957325718941
 30
0.0
 70
    16
  0
VERTEX
  5
15EE9
  8
5-3図補助
 10
21.739252905430039
 20
20.07966527273302
 30
0.0
 70
    16
  0
VERTEX
  5
15EEA
  8
5-3図補助
 10
22.599215818107631
 20
20.121622527894171
 30
0.0
 70
    16
  0
VERTEX
  5
15EEB
  8
5-3図補助
 10
23.02701224027307
 20
20.184873111423389
 30
0.0
 70
    16
  0
VERTEX
  5
15EEC
  8
5-3図補助
 10
23.860761932385142
 20
20.393906917678709
 30
0.0
 70
    16
  0
VERTEX
  5
15EED
  8
5-3図補助
 10
24.26670675419361
 20
20.539696834578901
 30
0.0
 70
    16
  0
VERTEX
  5
15EEE
  8
5-3図補助
 10
25.039534822335121
 20
20.909009707195899
 30
0.0
 70
    16
  0
VERTEX
  5
15EEF
  8
5-3図補助
 10
25.406403728192249
 20
21.132544948924672
 30
0.0
 70
    16
  0
VERTEX
  5
15EF0
  8
5-3図補助
 10
26.08445232396415
 20
21.649472194131949
 30
0.0
 70
    16
  0
VERTEX
  5
15EF1
  8
5-3図補助
 10
26.395605072646749
 20
21.94287862824623
 30
0.0
 70
    16
  0
VERTEX
  5
15EF2
  8
5-3図補助
 10
26.946776190939801
 20
22.588174535193179
 30
0.0
 70
    16
  0
VERTEX
  5
15EF3
  8
5-3図補助
 10
27.186749884983801
 20
22.940069204087219
 30
0.0
 70
    16
  0
VERTEX
  5
15EF4
  8
5-3図補助
 10
27.582361173750002
 20
23.687122595472339
 30
0.0
 70
    16
  0
VERTEX
  5
15EF5
  8
5-3図補助
 10
27.737942543790862
 20
24.082259674531681
 30
0.0
 70
    16
  0
VERTEX
  5
15EF6
  8
5-3図補助
 10
27.955365729465051
 20
24.896911687284408
 30
0.0
 70
    16
  0
VERTEX
  5
15EF7
  8
5-3図補助
 10
28.017163051611561
 20
25.316368703134138
 30
0.0
 70
    16
  0
VERTEX
  5
15EF8
  8
5-3図補助
 10
28.031827678444451
 20
25.793715389011389
 30
0.0
 70
    16
  0
VERTEX
  5
15EF9
  8
5-3図補助
 10
28.03268308264435
 20
25.85012996301483
 30
0.0
 70
    16
  0
VERTEX
  5
15EFA
  8
5-3図補助
 10
28.032664301628099
 20
25.90654412371892
 30
0.0
 70
    16
  0
SEQEND
  5
15EFB
  8
5-3図補助
  0
POLYLINE
  5
15EFC
  8
5-3図補助
 66
     1
 10
0.0
 20
0.0
 30
0.0
  0
VERTEX
  5
1D2E1
  8
5-3図補助
 10
43.561011877818054
 20
30.068232338672111
 30
0.0
  0
VERTEX
  5
1D2E2
  8
5-3図補助
 10
40.417665868535792
 20
30.068232338672111
 30
0.0
 42
-0.481324205753398
  0
VERTEX
  5
1D2E3
  8
5-3図補助
 10
40.150643506248933
 20
30.402788653751109
 30
0.0
  0
VERTEX
  5
1D2E4
  8
5-3図補助
 10
40.454892929727308
 20
31.740806853966799
 30
0.0
 42
0.4813242057533972
  0
VERTEX
  5
1D2E5
  8
5-3図補助
 10
40.187870567440442
 20
32.075363169046142
 30
0.0
  0
VERTEX
  5
1D2E6
  8
5-3図補助
 10
38.365866902061981
 20
32.075363169046142
 30
0.0
 42
0.3501433327235788
  0
VERTEX
  5
1D2E7
  8
5-3図補助
 10
37.920829631584432
 20
31.72016167407369
 30
0.0
  0
VERTEX
  5
1D2E8
  8
5-3図補助
 10
37.593661706803253
 20
30.281353235655409
 30
0.0
 42
-0.3501433327235753
  0
VERTEX
  5
1D2E9
  8
5-3図補助
 10
37.326639344516728
 20
30.068232338672111
 30
0.0
  0
VERTEX
  5
1D2EA
  8
5-3図補助
 10
33.686791810362273
 20
30.068232338672111
 30
0.0
  0
SEQEND
  5
1D2EB
  8
5-3図補助
  0
POLYLINE
  5
15EFD
  8
5-3図補助
 66
     1
 10
0.0
 20
0.0
 30
0.0
 70
     1
  0
VERTEX
  5
1D2EC
  8
5-3図補助
 10
35.24904915632694
 20
26.946028949086578
 30
0.0
  0
VERTEX
  5
1D2ED
  8
5-3図補助
 10
41.849967911430689
 20
26.946028949086578
 30
0.0
 42
0.4142135623730951
  0
VERTEX
  5
1D2EE
  8
5-3図補助
 10
42.306365588149447
 20
27.402426625805361
 30
0.0
  0
VERTEX
  5
1D2EF
  8
5-3図補助
 10
42.306365588149447
 20
28.12507137400123
 30
0.0
 42
0.4142135623730951
  0
VERTEX
  5
1D2F0
  8
5-3図補助
 10
41.849967911430689
 20
28.58146905072001
 30
0.0
  0
VERTEX
  5
1D2F1
  8
5-3図補助
 10
35.24904915632694
 20
28.58146905072001
 30
0.0
 42
0.4142135623730951
  0
VERTEX
  5
1D2F2
  8
5-3図補助
 10
34.792651479608161
 20
28.12507137400123
 30
0.0
  0
VERTEX
  5
1D2F3
  8
5-3図補助
 10
34.792651479608161
 20
27.402426625805361
 30
0.0
 42
0.4142135623730951
  0
SEQEND
  5
1D2F4
  8
5-3図補助
  0
POLYLINE
  5
15EFE
  8
5-3図補助
 66
     1
 10
0.0
 20
0.0
 30
0.0
 70
     1
  0
VERTEX
  5
1D2F5
  8
5-3図補助
 10
35.24904915632694
 20
24.121178067896182
 30
0.0
  0
VERTEX
  5
1D2F6
  8
5-3図補助
 10
41.849967911430689
 20
24.121178067896022
 30
0.0
 42
0.4142135623730951
  0
VERTEX
  5
1D2F7
  8
5-3図補助
 10
42.306365588149447
 20
24.577575744614961
 30
0.0
  0
VERTEX
  5
1D2F8
  8
5-3図補助
 10
42.306365588149447
 20
25.30022049281083
 30
0.0
 42
0.4142135623730951
  0
VERTEX
  5
1D2F9
  8
5-3図補助
 10
41.849967911430689
 20
25.756618169529609
 30
0.0
  0
VERTEX
  5
1D2FA
  8
5-3図補助
 10
35.24904915632694
 20
25.756618169529609
 30
0.0
 42
0.4142135623730951
  0
VERTEX
  5
1D2FB
  8
5-3図補助
 10
34.792651479608161
 20
25.30022049281083
 30
0.0
  0
VERTEX
  5
1D2FC
  8
5-3図補助
 10
34.792651479608161
 20
24.577575744614961
 30
0.0
 42
0.4142135623730951
  0
SEQEND
  5
1D2FD
  8
5-3図補助
  0
POLYLINE
  5
15EFF
  8
5-3図補助
 66
     1
 10
0.0
 20
0.0
 30
0.0
  0
VERTEX
  5
1D2FE
  8
5-3図補助
 10
33.230394133643493
 20
29.611834661953498
 30
0.0
  0
VERTEX
  5
1D2FF
  8
5-3図補助
 10
33.230394133643841
 20
23.09364224372089
 30
0.0
 42
0.1990085786799894
  0
VERTEX
  5
1D300
  8
5-3図補助
 10
33.765575235529951
 20
21.802276888609889
 30
0.0
  0
VERTEX
  5
1D301
  8
5-3図補助
 10
33.825539995770228
 20
21.742356508781221
 30
0.0
  0
VERTEX
  5
1D302
  8
5-3図補助
 10
34.630563668655917
 20
21.340142365301311
 30
0.0
 42
0.1163588495668516
  0
VERTEX
  5
1D303
  8
5-3図補助
 10
35.446509488483819
 20
21.147651119002742
 30
0.0
  0
VERTEX
  5
1D304
  8
5-3図補助
 10
41.921375147840671
 20
21.147651119002742
 30
0.0
 42
0.1621865367099947
  0
VERTEX
  5
1D305
  8
5-3図補助
 10
43.016210820975893
 20
21.512380341047798
 30
0.0
  0
VERTEX
  5
1D306
  8
5-3図補助
 10
43.422263692409743
 20
21.816694729127349
 30
0.0
  0
VERTEX
  5
1D307
  8
5-3図補助
 10
43.482228106723952
 20
21.87661473118273
 30
0.0
 42
0.1990086483013951
  0
VERTEX
  5
1D308
  8
5-3図補助
 10
44.017409554536819
 20
23.167980431964359
 30
0.0
  0
VERTEX
  5
1D309
  8
5-3図補助
 10
44.017409554536819
 20
29.611834661953498
 30
0.0
  0
SEQEND
  5
1D30A
  8
5-3図補助
  0
POLYLINE
  5
15F00
  8
5-3図補助
 66
     1
 10
0.0
 20
0.0
 30
0.0
  0
VERTEX
  5
1D30B
  8
5-3図補助
 10
49.59690007583891
 20
31.504172054619939
 30
0.0
  0
VERTEX
  5
1D30C
  8
5-3図補助
 10
49.59690007583891
 20
23.800311657137989
 30
0.0
 42
-0.4142135623730951
  0
VERTEX
  5
1D30D
  8
5-3図補助
 10
49.32306146980752
 20
23.526473051106411
 30
0.0
  0
VERTEX
  5
1D30E
  8
5-3図補助
 10
48.25782235072645
 20
23.526473051106411
 30
0.0
  0
VERTEX
  5
1D30F
  8
5-3図補助
 10
48.25782235072645
 20
21.049798996293038
 30
0.0
 42
0.4142135623730951
  0
VERTEX
  5
1D310
  8
5-3図補助
 10
48.531660956757499
 20
20.775960390261812
 30
0.0
  0
VERTEX
  5
1D311
  8
5-3図補助
 10
50.553973744226163
 20
20.775960390261812
 30
0.0
 42
0.4142135623730925
  0
VERTEX
  5
1D312
  8
5-3図補助
 10
51.010371420944942
 20
21.232358066980591
 30
0.0
  0
VERTEX
  5
1D313
  8
5-3図補助
 10
51.010371420944942
 20
23.526473051106411
 30
0.0
  0
SEQEND
  5
1D314
  8
5-3図補助
  0
POLYLINE
  5
15F01
  8
5-3図補助
 66
     1
 10
0.0
 20
0.0
 30
0.0
  0
VERTEX
  5
1D315
  8
5-3図補助
 10
44.686948417093411
 20
21.296327559694671
 30
0.0
  0
VERTEX
  5
1D316
  8
5-3図補助
 10
44.686948417093411
 20
24.715883830663891
 30
0.0
  0
VERTEX
  5
1D317
  8
5-3図補助
 10
45.948647485197419
 20
24.861356629807251
 30
0.0
 42
0.1794436248088848
  0
VERTEX
  5
1D318
  8
5-3図補助
 10
47.080537454292902
 20
25.436176003524249
 30
0.0
  0
VERTEX
  5
1D319
  8
5-3図補助
 10
47.513890487741058
 20
25.905294610221201
 30
0.0
  0
VERTEX
  5
1D31A
  8
5-3図補助
 10
47.843856816924259
 20
26.78455389770286
 30
0.0
 42
0.0899952973654332
  0
VERTEX
  5
1D31B
  8
5-3図補助
 10
47.96024972944543
 20
27.42597757110698
 30
0.0
  0
VERTEX
  5
1D31C
  8
5-3図補助
 10
47.96024972944543
 20
27.912425440595221
 30
0.0
  0
SEQEND
  5
1D31D
  8
5-3図補助
  0
POLYLINE
  5
15F02
  8
5-3図補助
 66
     1
 10
0.0
 20
0.0
 30
0.0
  0
VERTEX
  5
1D31E
  8
5-3図補助
 10
44.686948417093411
 20
21.296327559694671
 30
0.0
  0
VERTEX
  5
1D31F
  8
5-3図補助
 10
45.630049538870949
 20
21.5207092495199
 30
0.0
 42
0.1693134207760905
  0
VERTEX
  5
1D320
  8
5-3図補助
 10
46.642591289989703
 20
22.168320407255941
 30
0.0
  0
VERTEX
  5
1D321
  8
5-3図補助
 10
47.067531246036673
 20
22.7087530002897
 30
0.0
  0
VERTEX
  5
1D322
  8
5-3図補助
 10
48.183429350297288
 20
24.344192728933901
 30
0.0
  0
VERTEX
  5
1D323
  8
5-3図補助
 10
48.70418159243016
 20
25.607941728837339
 30
0.0
  0
VERTEX
  5
1D324
  8
5-3図補助
 10
49.001754833276223
 20
27.540734338865398
 30
0.0
  0
VERTEX
  5
1D325
  8
5-3図補助
 10
49.001754833276223
 20
27.912425440595221
 30
0.0
  0
SEQEND
  5
1D326
  8
5-3図補助
  0
POLYLINE
  5
15F03
  8
5-3図補助
 66
     1
 10
0.0
 20
0.0
 30
0.0
  0
VERTEX
  5
1D327
  8
5-3図補助
 10
67.399645129247375
 20
21.008071857282879
 30
0.0
  0
VERTEX
  5
1D328
  8
5-3図補助
 10
67.399645129247375
 20
24.244818064702741
 30
0.0
  0
VERTEX
  5
1D329
  8
5-3図補助
 10
67.903890144868029
 20
24.28589922749941
 30
0.0
 42
0.1887161012939215
  0
VERTEX
  5
1D32A
  8
5-3図補助
 10
68.023009318371365
 20
24.446060863038859
 30
0.0
  0
VERTEX
  5
1D32B
  8
5-3図補助
 10
68.21797061222631
 20
25.160390238228981
 30
0.0
  0
VERTEX
  5
1D32C
  8
5-3図補助
 10
67.994790991374458
 20
27.836564678727459
 30
0.0
  0
SEQEND
  5
1D32D
  8
5-3図補助
  0
POLYLINE
  5
15F04
  8
5-3図補助
 66
     1
 10
0.0
 20
0.0
 30
0.0
  0
VERTEX
  5
1D32E
  8
5-3図補助
 10
69.780227958190963
 20
24.714360916153019
 30
0.0
  0
VERTEX
  5
1D32F
  8
5-3図補助
 10
69.780227958190963
 20
25.978109916056631
 30
0.0
  0
VERTEX
  5
1D330
  8
5-3図補助
 10
70.226587199895022
 20
25.978109916056631
 30
0.0
  0
VERTEX
  5
1D331
  8
5-3図補助
 10
70.37537320075333
 20
26.31263102462324
 30
0.0
  0
SEQEND
  5
1D332
  8
5-3図補助
  0
LINE
  5
15F05
  8
5-3図補助
 10
19.654710581598941
 20
25.830795783021721
 30
0.0
 11
23.890000429605848
 21
25.824095581774738
 31
0.0
  0
LINE
  5
15F06
  8
5-3図補助
 10
19.689928664010171
 20
24.049209800029899
 30
0.0
 11
23.890077979643841
 21
24.05369052848939
 31
0.0
  0
POLYLINE
  5
15F07
  8
5-3図補助
 66
     1
 10
0.0
 20
0.0
 30
0.0
 70
   132
 75
     6
  0
VERTEX
  5
15F08
  8
5-3図補助
 10
21.41008452432995
 20
29.677987736423479
 30
0.0
 70
    16
  0
VERTEX
  5
15F09
  8
5-3図補助
 10
21.41008452432995
 20
29.677987736423479
 30
0.0
 70
     8
  0
VERTEX
  5
15F0A
  8
5-3図補助
 10
21.319624796326622
 20
29.673775311689969
 30
0.0
 70
     8
  0
VERTEX
  5
15F0B
  8
5-3図補助
 10
21.15952914475238
 20
29.663791295838472
 30
0.0
 70
     8
  0
VERTEX
  5
15F0C
  8
5-3図補助
 10
20.736349313518549
 20
29.630548181246951
 30
0.0
 70
     8
  0
VERTEX
  5
15F0D
  8
5-3図補助
 10
20.241646711193791
 20
29.563550389255649
 30
0.0
 70
     8
  0
VERTEX
  5
15F0E
  8
5-3図補助
 10
19.57166313257223
 20
29.434903859623571
 30
0.0
 70
     8
  0
VERTEX
  5
15F0F
  8
5-3図補助
 10
19.053540476067742
 20
29.299553935506101
 30
0.0
 70
     8
  0
VERTEX
  5
15F10
  8
5-3図補助
 10
18.433143994237088
 20
29.088930874874301
 30
0.0
 70
     8
  0
VERTEX
  5
15F11
  8
5-3図補助
 10
17.97841441621906
 20
28.894526792375551
 30
0.0
 70
     8
  0
VERTEX
  5
15F12
  8
5-3図補助
 10
17.504800006519439
 20
28.640111167563891
 30
0.0
 70
     8
  0
VERTEX
  5
15F13
  8
5-3図補助
 10
17.191937086575901
 20
28.440469350841251
 30
0.0
 70
     8
  0
VERTEX
  5
15F14
  8
5-3図補助
 10
16.842698801942579
 20
28.173077258016491
 30
0.0
 70
     8
  0
VERTEX
  5
15F15
  8
5-3図補助
 10
16.591458264607152
 20
27.942799424364029
 30
0.0
 70
     8
  0
VERTEX
  5
15F16
  8
5-3図補助
 10
16.337092646597299
 20
27.656565065799072
 30
0.0
 70
     8
  0
VERTEX
  5
15F17
  8
5-3図補助
 10
16.174687904433672
 20
27.439056606765941
 30
0.0
 70
     8
  0
VERTEX
  5
15F18
  8
5-3図補助
 10
16.003532050863232
 20
27.158124521588679
 30
0.0
 70
     8
  0
VERTEX
  5
15F19
  8
5-3図補助
 10
15.88689575324476
 20
26.91646445047413
 30
0.0
 70
     8
  0
VERTEX
  5
15F1A
  8
5-3図補助
 10
15.77130239654652
 20
26.594744623696581
 30
0.0
 70
     8
  0
VERTEX
  5
15F1B
  8
5-3図補助
 10
15.70932907075214
 20
26.345785503711131
 30
0.0
 70
     8
  0
VERTEX
  5
15F1C
  8
5-3図補助
 10
15.67691355874083
 20
26.104673049846859
 30
0.0
 70
     8
  0
VERTEX
  5
15F1D
  8
5-3図補助
 10
15.66671948646446
 20
25.988282108231338
 30
0.0
 70
     8
  0
VERTEX
  5
15F1E
  8
5-3図補助
 10
15.66379220020681
 20
25.90654412371892
 30
0.0
 70
     8
  0
VERTEX
  5
15F1F
  8
5-3図補助
 10
21.319601701531631
 20
29.673961108276242
 30
0.0
 70
    16
  0
VERTEX
  5
15F20
  8
5-3図補助
 10
21.229257447503549
 20
29.66881970061209
 30
0.0
 70
    16
  0
VERTEX
  5
15F21
  8
5-3図補助
 10
20.720543376968429
 20
29.633507864306601
 30
0.0
 70
    16
  0
VERTEX
  5
15F22
  8
5-3図補助
 10
20.30666492573371
 20
29.58043792964386
 30
0.0
 70
    16
  0
VERTEX
  5
15F23
  8
5-3図補助
 10
19.50267718725879
 20
29.42604275265202
 30
0.0
 70
    16
  0
VERTEX
  5
15F24
  8
5-3図補助
 10
19.112605120663169
 20
29.32481421748999
 30
0.0
 70
    16
  0
VERTEX
  5
15F25
  8
5-3図補助
 10
18.368145186495688
 20
29.07202399042378
 30
0.0
 70
    16
  0
VERTEX
  5
15F26
  8
5-3図補助
 10
18.013678098777309
 20
28.920675070059151
 30
0.0
 70
    16
  0
VERTEX
  5
15F27
  8
5-3図補助
 10
17.44762891570976
 20
28.612436483592571
 30
0.0
 70
    16
  0
VERTEX
  5
15F28
  8
5-3図補助
 10
17.2246062774989
 20
28.47024600095429
 30
0.0
 70
    16
  0
VERTEX
  5
15F29
  8
5-3図補助
 10
16.805568493749341
 20
28.149395617638131
 30
0.0
 70
    16
  0
VERTEX
  5
15F2A
  8
5-3図補助
 10
16.609312559160589
 20
27.97063507659194
 30
0.0
 70
    16
  0
VERTEX
  5
15F2B
  8
5-3図補助
 10
16.305930857251521
 20
27.624860622178311
 30
0.0
 70
    16
  0
VERTEX
  5
15F2C
  8
5-3図補助
 10
16.18951989141615
 20
27.469312829489549
 30
0.0
 70
    16
  0
VERTEX
  5
15F2D
  8
5-3図補助
 10
15.98411700368594
 20
27.13222770045947
 30
0.0
 70
    16
  0
VERTEX
  5
15F2E
  8
5-3図補助
 10
15.89520439901982
 20
26.95052349820482
 30
0.0
 70
    16
  0
VERTEX
  5
15F2F
  8
5-3図補助
 10
15.75643991970334
 20
26.564465009565328
 30
0.0
 70
    16
  0
VERTEX
  5
15F30
  8
5-3図補助
 10
15.70685030144525
 20
26.360084205711949
 30
0.0
 70
    16
  0
VERTEX
  5
15F31
  8
5-3図補助
 10
15.67213329902815
 20
26.069911189853681
 30
0.0
 70
    16
  0
VERTEX
  5
15F32
  8
5-3図補助
 10
15.66609785488779
 20
25.98830933395416
 30
0.0
 70
    16
  0
VERTEX
  5
15F33
  8
5-3図補助
 10
15.66379220020681
 20
25.90654412371892
 30
0.0
 70
    16
  0
SEQEND
  5
15F34
  8
5-3図補助
  0
POLYLINE
  5
15F35
  8
5-3図補助
 10
26.572202123255792
 20
25.906544123719041
 30
0.0
 66
     1
 70
     8
  0
VERTEX
  8
5-3図補助
  5
1D4D3
 10
26.5722
 20
25.9065
 30
0.000000
  70
    32
  0
VERTEX
  8
5-3図補助
  5
1D4D4
 10
26.5643
 20
25.9353
 30
0.000000
  70
    32
  0
VERTEX
  8
5-3図補助
  5
1D4D5
 10
26.5558
 20
25.9640
 30
0.000000
  70
    32
  0
VERTEX
  8
5-3図補助
  5
1D4D6
 10
26.5467
 20
25.9927
 30
0.000000
  70
    32
  0
VERTEX
  8
5-3図補助
  5
1D4D7
 10
26.5370
 20
26.0213
 30
0.000000
  70
    32
  0
VERTEX
  8
5-3図補助
  5
1D4D8
 10
26.5268
 20
26.0498
 30
0.000000
  70
    32
  0
VERTEX
  8
5-3図補助
  5
1D4D9
 10
26.5160
 20
26.0783
 30
0.000000
  70
    32
  0
VERTEX
  8
5-3図補助
  5
1D4DA
 10
26.5045
 20
26.1067
 30
0.000000
  70
    32
  0
VERTEX
  8
5-3図補助
  5
1D4DB
 10
26.4926
 20
26.1350
 30
0.000000
  70
    32
  0
VERTEX
  8
5-3図補助
  5
1D4DC
 10
26.4800
 20
26.1632
 30
0.000000
  70
    32
  0
VERTEX
  8
5-3図補助
  5
1D4DD
 10
26.4668
 20
26.1914
 30
0.000000
  70
    32
  0
VERTEX
  8
5-3図補助
  5
1D4DE
 10
26.4531
 20
26.2195
 30
0.000000
  70
    32
  0
VERTEX
  8
5-3図補助
  5
1D4DF
 10
26.4388
 20
26.2475
 30
0.000000
  70
    32
  0
VERTEX
  8
5-3図補助
  5
1D4E0
 10
26.4240
 20
26.2755
 30
0.000000
  70
    32
  0
VERTEX
  8
5-3図補助
  5
1D4E1
 10
26.4085
 20
26.3033
 30
0.000000
  70
    32
  0
VERTEX
  8
5-3図補助
  5
1D4E2
 10
26.3925
 20
26.3310
 30
0.000000
  70
    32
  0
VERTEX
  8
5-3図補助
  5
1D4E3
 10
26.3760
 20
26.3586
 30
0.000000
  70
    32
  0
VERTEX
  8
5-3図補助
  5
1D4E4
 10
26.3588
 20
26.3862
 30
0.000000
  70
    32
  0
VERTEX
  8
5-3図補助
  5
1D4E5
 10
26.3411
 20
26.4136
 30
0.000000
  70
    32
  0
VERTEX
  8
5-3図補助
  5
1D4E6
 10
26.3229
 20
26.4409
 30
0.000000
  70
    32
  0
VERTEX
  8
5-3図補助
  5
1D4E7
 10
26.3041
 20
26.4681
 30
0.000000
  70
    32
  0
VERTEX
  8
5-3図補助
  5
1D4E8
 10
26.2847
 20
26.4952
 30
0.000000
  70
    32
  0
VERTEX
  8
5-3図補助
  5
1D4E9
 10
26.2648
 20
26.5222
 30
0.000000
  70
    32
  0
VERTEX
  8
5-3図補助
  5
1D4EA
 10
26.2443
 20
26.5490
 30
0.000000
  70
    32
  0
VERTEX
  8
5-3図補助
  5
1D4EB
 10
26.2233
 20
26.5757
 30
0.000000
  70
    32
  0
VERTEX
  8
5-3図補助
  5
1D4EC
 10
26.2018
 20
26.6023
 30
0.000000
  70
    32
  0
VERTEX
  8
5-3図補助
  5
1D4ED
 10
26.1797
 20
26.6287
 30
0.000000
  70
    32
  0
VERTEX
  8
5-3図補助
  5
1D4EE
 10
26.1570
 20
26.6551
 30
0.000000
  70
    32
  0
VERTEX
  8
5-3図補助
  5
1D4EF
 10
26.1339
 20
26.6812
 30
0.000000
  70
    32
  0
VERTEX
  8
5-3図補助
  5
1D4F0
 10
26.1102
 20
26.7073
 30
0.000000
  70
    32
  0
VERTEX
  8
5-3図補助
  5
1D4F1
 10
26.0859
 20
26.7332
 30
0.000000
  70
    32
  0
VERTEX
  8
5-3図補助
  5
1D4F2
 10
26.0612
 20
26.7589
 30
0.000000
  70
    32
  0
VERTEX
  8
5-3図補助
  5
1D4F3
 10
26.0359
 20
26.7845
 30
0.000000
  70
    32
  0
VERTEX
  8
5-3図補助
  5
1D4F4
 10
26.0101
 20
26.8099
 30
0.000000
  70
    32
  0
VERTEX
  8
5-3図補助
  5
1D4F5
 10
25.9838
 20
26.8352
 30
0.000000
  70
    32
  0
VERTEX
  8
5-3図補助
  5
1D4F6
 10
25.9569
 20
26.8603
 30
0.000000
  70
    32
  0
VERTEX
  8
5-3図補助
  5
1D4F7
 10
25.9296
 20
26.8852
 30
0.000000
  70
    32
  0
VERTEX
  8
5-3図補助
  5
1D4F8
 10
25.9017
 20
26.9100
 30
0.000000
  70
    32
  0
VERTEX
  8
5-3図補助
  5
1D4F9
 10
25.8734
 20
26.9346
 30
0.000000
  70
    32
  0
VERTEX
  8
5-3図補助
  5
1D4FA
 10
25.8445
 20
26.9590
 30
0.000000
  70
    32
  0
VERTEX
  8
5-3図補助
  5
1D4FB
 10
25.8151
 20
26.9832
 30
0.000000
  70
    32
  0
VERTEX
  8
5-3図補助
  5
1D4FC
 10
25.7853
 20
27.0073
 30
0.000000
  70
    32
  0
VERTEX
  8
5-3図補助
  5
1D4FD
 10
25.7549
 20
27.0312
 30
0.000000
  70
    32
  0
VERTEX
  8
5-3図補助
  5
1D4FE
 10
25.7241
 20
27.0549
 30
0.000000
  70
    32
  0
VERTEX
  8
5-3図補助
  5
1D4FF
 10
25.6928
 20
27.0784
 30
0.000000
  70
    32
  0
VERTEX
  8
5-3図補助
  5
1D500
 10
25.6610
 20
27.1017
 30
0.000000
  70
    32
  0
VERTEX
  8
5-3図補助
  5
1D501
 10
25.6288
 20
27.1248
 30
0.000000
  70
    32
  0
VERTEX
  8
5-3図補助
  5
1D502
 10
25.5960
 20
27.1477
 30
0.000000
  70
    32
  0
VERTEX
  8
5-3図補助
  5
1D503
 10
25.5628
 20
27.1705
 30
0.000000
  70
    32
  0
VERTEX
  8
5-3図補助
  5
1D504
 10
25.5292
 20
27.1930
 30
0.000000
  70
    32
  0
VERTEX
  8
5-3図補助
  5
1D505
 10
25.4951
 20
27.2153
 30
0.000000
  70
    32
  0
VERTEX
  8
5-3図補助
  5
1D506
 10
25.4605
 20
27.2374
 30
0.000000
  70
    32
  0
VERTEX
  8
5-3図補助
  5
1D507
 10
25.4255
 20
27.2593
 30
0.000000
  70
    32
  0
VERTEX
  8
5-3図補助
  5
1D508
 10
25.3900
 20
27.2809
 30
0.000000
  70
    32
  0
VERTEX
  8
5-3図補助
  5
1D509
 10
25.3541
 20
27.3024
 30
0.000000
  70
    32
  0
VERTEX
  8
5-3図補助
  5
1D50A
 10
25.3178
 20
27.3236
 30
0.000000
  70
    32
  0
VERTEX
  8
5-3図補助
  5
1D50B
 10
25.2810
 20
27.3446
 30
0.000000
  70
    32
  0
VERTEX
  8
5-3図補助
  5
1D50C
 10
25.2438
 20
27.3654
 30
0.000000
  70
    32
  0
VERTEX
  8
5-3図補助
  5
1D50D
 10
25.2062
 20
27.3859
 30
0.000000
  70
    32
  0
VERTEX
  8
5-3図補助
  5
1D50E
 10
25.1681
 20
27.4063
 30
0.000000
  70
    32
  0
VERTEX
  8
5-3図補助
  5
1D50F
 10
25.1297
 20
27.4263
 30
0.000000
  70
    32
  0
VERTEX
  8
5-3図補助
  5
1D510
 10
25.0908
 20
27.4462
 30
0.000000
  70
    32
  0
VERTEX
  8
5-3図補助
  5
1D511
 10
25.0516
 20
27.4658
 30
0.000000
  70
    32
  0
VERTEX
  8
5-3図補助
  5
1D512
 10
25.0119
 20
27.4852
 30
0.000000
  70
    32
  0
VERTEX
  8
5-3図補助
  5
1D513
 10
24.9719
 20
27.5043
 30
0.000000
  70
    32
  0
VERTEX
  8
5-3図補助
  5
1D514
 10
24.9314
 20
27.5232
 30
0.000000
  70
    32
  0
VERTEX
  8
5-3図補助
  5
1D515
 10
24.8906
 20
27.5418
 30
0.000000
  70
    32
  0
VERTEX
  8
5-3図補助
  5
1D516
 10
24.8494
 20
27.5602
 30
0.000000
  70
    32
  0
VERTEX
  8
5-3図補助
  5
1D517
 10
24.8078
 20
27.5783
 30
0.000000
  70
    32
  0
VERTEX
  8
5-3図補助
  5
1D518
 10
24.7659
 20
27.5962
 30
0.000000
  70
    32
  0
VERTEX
  8
5-3図補助
  5
1D519
 10
24.7236
 20
27.6138
 30
0.000000
  70
    32
  0
VERTEX
  8
5-3図補助
  5
1D51A
 10
24.6809
 20
27.6312
 30
0.000000
  70
    32
  0
VERTEX
  8
5-3図補助
  5
1D51B
 10
24.6379
 20
27.6483
 30
0.000000
  70
    32
  0
VERTEX
  8
5-3図補助
  5
1D51C
 10
24.5945
 20
27.6651
 30
0.000000
  70
    32
  0
VERTEX
  8
5-3図補助
  5
1D51D
 10
24.5508
 20
27.6817
 30
0.000000
  70
    32
  0
VERTEX
  8
5-3図補助
  5
1D51E
 10
24.5068
 20
27.6980
 30
0.000000
  70
    32
  0
VERTEX
  8
5-3図補助
  5
1D51F
 10
24.4624
 20
27.7140
 30
0.000000
  70
    32
  0
VERTEX
  8
5-3図補助
  5
1D520
 10
24.4178
 20
27.7298
 30
0.000000
  70
    32
  0
VERTEX
  8
5-3図補助
  5
1D521
 10
24.3727
 20
27.7453
 30
0.000000
  70
    32
  0
VERTEX
  8
5-3図補助
  5
1D522
 10
24.3274
 20
27.7605
 30
0.000000
  70
    32
  0
VERTEX
  8
5-3図補助
  5
1D523
 10
24.2818
 20
27.7754
 30
0.000000
  70
    32
  0
VERTEX
  8
5-3図補助
  5
1D524
 10
24.2359
 20
27.7901
 30
0.000000
  70
    32
  0
VERTEX
  8
5-3図補助
  5
1D525
 10
24.1896
 20
27.8044
 30
0.000000
  70
    32
  0
VERTEX
  8
5-3図補助
  5
1D526
 10
24.1431
 20
27.8185
 30
0.000000
  70
    32
  0
VERTEX
  8
5-3図補助
  5
1D527
 10
24.0963
 20
27.8323
 30
0.000000
  70
    32
  0
VERTEX
  8
5-3図補助
  5
1D528
 10
24.0492
 20
27.8458
 30
0.000000
  70
    32
  0
VERTEX
  8
5-3図補助
  5
1D529
 10
24.0019
 20
27.8591
 30
0.000000
  70
    32
  0
VERTEX
  8
5-3図補助
  5
1D52A
 10
23.9542
 20
27.8720
 30
0.000000
  70
    32
  0
VERTEX
  8
5-3図補助
  5
1D52B
 10
23.9064
 20
27.8846
 30
0.000000
  70
    32
  0
VERTEX
  8
5-3図補助
  5
1D52C
 10
23.8582
 20
27.8970
 30
0.000000
  70
    32
  0
VERTEX
  8
5-3図補助
  5
1D52D
 10
23.8098
 20
27.9090
 30
0.000000
  70
    32
  0
VERTEX
  8
5-3図補助
  5
1D52E
 10
23.7612
 20
27.9208
 30
0.000000
  70
    32
  0
VERTEX
  8
5-3図補助
  5
1D52F
 10
23.7123
 20
27.9323
 30
0.000000
  70
    32
  0
VERTEX
  8
5-3図補助
  5
1D530
 10
23.6632
 20
27.9434
 30
0.000000
  70
    32
  0
VERTEX
  8
5-3図補助
  5
1D531
 10
23.6139
 20
27.9543
 30
0.000000
  70
    32
  0
VERTEX
  8
5-3図補助
  5
1D532
 10
23.5643
 20
27.9649
 30
0.000000
  70
    32
  0
VERTEX
  8
5-3図補助
  5
1D533
 10
23.5146
 20
27.9751
 30
0.000000
  70
    32
  0
VERTEX
  8
5-3図補助
  5
1D534
 10
23.4646
 20
27.9851
 30
0.000000
  70
    32
  0
VERTEX
  8
5-3図補助
  5
1D535
 10
23.4145
 20
27.9947
 30
0.000000
  70
    32
  0
VERTEX
  8
5-3図補助
  5
1D536
 10
23.3641
 20
28.0040
 30
0.000000
  70
    32
  0
VERTEX
  8
5-3図補助
  5
1D537
 10
23.3136
 20
28.0131
 30
0.000000
  70
    32
  0
VERTEX
  8
5-3図補助
  5
1D538
 10
23.2628
 20
28.0218
 30
0.000000
  70
    32
  0
VERTEX
  8
5-3図補助
  5
1D539
 10
23.2119
 20
28.0302
 30
0.000000
  70
    32
  0
VERTEX
  8
5-3図補助
  5
1D53A
 10
23.1609
 20
28.0383
 30
0.000000
  70
    32
  0
VERTEX
  8
5-3図補助
  5
1D53B
 10
23.1096
 20
28.0461
 30
0.000000
  70
    32
  0
VERTEX
  8
5-3図補助
  5
1D53C
 10
23.0582
 20
28.0536
 30
0.000000
  70
    32
  0
VERTEX
  8
5-3図補助
  5
1D53D
 10
23.0067
 20
28.0607
 30
0.000000
  70
    32
  0
VERTEX
  8
5-3図補助
  5
1D53E
 10
22.9550
 20
28.0676
 30
0.000000
  70
    32
  0
VERTEX
  8
5-3図補助
  5
1D53F
 10
22.9032
 20
28.0741
 30
0.000000
  70
    32
  0
VERTEX
  8
5-3図補助
  5
1D540
 10
22.8513
 20
28.0803
 30
0.000000
  70
    32
  0
VERTEX
  8
5-3図補助
  5
1D541
 10
22.7992
 20
28.0862
 30
0.000000
  70
    32
  0
VERTEX
  8
5-3図補助
  5
1D542
 10
22.7470
 20
28.0918
 30
0.000000
  70
    32
  0
VERTEX
  8
5-3図補助
  5
1D543
 10
22.6947
 20
28.0971
 30
0.000000
  70
    32
  0
VERTEX
  8
5-3図補助
  5
1D544
 10
22.6423
 20
28.1020
 30
0.000000
  70
    32
  0
VERTEX
  8
5-3図補助
  5
1D545
 10
22.5898
 20
28.1066
 30
0.000000
  70
    32
  0
VERTEX
  8
5-3図補助
  5
1D546
 10
22.5372
 20
28.1109
 30
0.000000
  70
    32
  0
VERTEX
  8
5-3図補助
  5
1D547
 10
22.4845
 20
28.1149
 30
0.000000
  70
    32
  0
VERTEX
  8
5-3図補助
  5
1D548
 10
22.4318
 20
28.1185
 30
0.000000
  70
    32
  0
VERTEX
  8
5-3図補助
  5
1D549
 10
22.3790
 20
28.1219
 30
0.000000
  70
    32
  0
VERTEX
  8
5-3図補助
  5
1D54A
 10
22.3261
 20
28.1249
 30
0.000000
  70
    32
  0
VERTEX
  8
5-3図補助
  5
1D54B
 10
22.2731
 20
28.1276
 30
0.000000
  70
    32
  0
VERTEX
  8
5-3図補助
  5
1D54C
 10
22.2201
 20
28.1299
 30
0.000000
  70
    32
  0
VERTEX
  8
5-3図補助
  5
1D54D
 10
22.1671
 20
28.1319
 30
0.000000
  70
    32
  0
VERTEX
  8
5-3図補助
  5
1D54E
 10
22.1140
 20
28.1337
 30
0.000000
  70
    32
  0
VERTEX
  8
5-3図補助
  5
1D54F
 10
22.0609
 20
28.1351
 30
0.000000
  70
    32
  0
VERTEX
  8
5-3図補助
  5
1D550
 10
22.0077
 20
28.1361
 30
0.000000
  70
    32
  0
VERTEX
  8
5-3図補助
  5
1D551
 10
21.9546
 20
28.1369
 30
0.000000
  70
    32
  0
VERTEX
  8
5-3図補助
  5
1D552
 10
21.9014
 20
28.1373
 30
0.000000
  70
    32
  0
VERTEX
  8
5-3図補助
  5
1D553
 10
21.8482
 20
28.1374
 30
0.000000
  70
    32
  0
SEQEND
  8
5-3図補助
  5
1D554
  0
POLYLINE
  5
15F36
  8
5-3図補助
 66
     1
 10
0.0
 20
0.0
 30
0.0
 70
   132
 75
     6
  0
VERTEX
  5
15F37
  8
5-3図補助
 10
22.286382416044962
 20
29.677987736423479
 30
0.0
 70
    16
  0
VERTEX
  5
15F38
  8
5-3図補助
 10
22.286382416044962
 20
29.677987736423479
 30
0.0
 70
     8
  0
VERTEX
  5
15F39
  8
5-3図補助
 10
22.376842144048648
 20
29.673775311689969
 30
0.0
 70
     8
  0
VERTEX
  5
15F3A
  8
5-3図補助
 10
22.53693779562288
 20
29.663791295838472
 30
0.0
 70
     8
  0
VERTEX
  5
15F3B
  8
5-3図補助
 10
22.96011762685637
 20
29.630548181246951
 30
0.0
 70
     8
  0
VERTEX
  5
15F3C
  8
5-3図補助
 10
23.454820229181131
 20
29.563550389255649
 30
0.0
 70
     8
  0
VERTEX
  5
15F3D
  8
5-3図補助
 10
24.124803807803371
 20
29.434903859623571
 30
0.0
 70
     8
  0
VERTEX
  5
15F3E
  8
5-3図補助
 10
24.642926464307511
 20
29.299553935506101
 30
0.0
 70
     8
  0
VERTEX
  5
15F3F
  8
5-3図補助
 10
25.263322946138171
 20
29.088930874874301
 30
0.0
 70
     8
  0
VERTEX
  5
15F40
  8
5-3図補助
 10
25.718052524156199
 20
28.894526792375551
 30
0.0
 70
     8
  0
VERTEX
  5
15F41
  8
5-3図補助
 10
26.191666933856158
 20
28.640111167563891
 30
0.0
 70
     8
  0
VERTEX
  5
15F42
  8
5-3図補助
 10
26.504529853799362
 20
28.440469350841251
 30
0.0
 70
     8
  0
VERTEX
  5
15F43
  8
5-3図補助
 10
26.85376813843234
 20
28.173077258016491
 30
0.0
 70
     8
  0
VERTEX
  5
15F44
  8
5-3図補助
 10
27.105008675768111
 20
27.942799424364029
 30
0.0
 70
     8
  0
VERTEX
  5
15F45
  8
5-3図補助
 10
27.359374293778298
 20
27.656565065799072
 30
0.0
 70
     8
  0
VERTEX
  5
15F46
  8
5-3図補助
 10
27.521779035941591
 20
27.439056606765941
 30
0.0
 70
     8
  0
VERTEX
  5
15F47
  8
5-3図補助
 10
27.692934889512021
 20
27.158124521588679
 30
0.0
 70
     8
  0
VERTEX
  5
15F48
  8
5-3図補助
 10
27.80957118713085
 20
26.91646445047413
 30
0.0
 70
     8
  0
VERTEX
  5
15F49
  8
5-3図補助
 10
27.925164543828728
 20
26.594744623696581
 30
0.0
 70
     8
  0
VERTEX
  5
15F4A
  8
5-3図補助
 10
27.987137869623119
 20
26.345785503711131
 30
0.0
 70
     8
  0
VERTEX
  5
15F4B
  8
5-3図補助
 10
28.01955338163409
 20
26.104673049846859
 30
0.0
 70
     8
  0
VERTEX
  5
15F4C
  8
5-3図補助
 10
28.029747453910449
 20
25.988282108231338
 30
0.0
 70
     8
  0
VERTEX
  5
15F4D
  8
5-3図補助
 10
28.032674740168449
 20
25.90654412371892
 30
0.0
 70
     8
  0
VERTEX
  5
15F4E
  8
5-3図補助
 10
22.376865238843969
 20
29.673961108276242
 30
0.0
 70
    16
  0
VERTEX
  5
15F4F
  8
5-3図補助
 10
22.46720949287171
 20
29.66881970061209
 30
0.0
 70
    16
  0
VERTEX
  5
15F50
  8
5-3図補助
 10
22.975923563406489
 20
29.633507864306601
 30
0.0
 70
    16
  0
VERTEX
  5
15F51
  8
5-3図補助
 10
23.389802014641209
 20
29.58043792964386
 30
0.0
 70
    16
  0
VERTEX
  5
15F52
  8
5-3図補助
 10
24.193789753116469
 20
29.42604275265202
 30
0.0
 70
    16
  0
VERTEX
  5
15F53
  8
5-3図補助
 10
24.583861819712428
 20
29.32481421748999
 30
0.0
 70
    16
  0
VERTEX
  5
15F54
  8
5-3図補助
 10
25.328321753879909
 20
29.07202399042378
 30
0.0
 70
    16
  0
VERTEX
  5
15F55
  8
5-3図補助
 10
25.682788841597951
 20
28.920675070059151
 30
0.0
 70
    16
  0
VERTEX
  5
15F56
  8
5-3図補助
 10
26.248838024665499
 20
28.612436483592571
 30
0.0
 70
    16
  0
VERTEX
  5
15F57
  8
5-3図補助
 10
26.471860662876018
 20
28.47024600095429
 30
0.0
 70
    16
  0
VERTEX
  5
15F58
  8
5-3図補助
 10
26.890898446625929
 20
28.149395617638131
 30
0.0
 70
    16
  0
VERTEX
  5
15F59
  8
5-3図補助
 10
27.087154381215012
 20
27.97063507659194
 30
0.0
 70
    16
  0
VERTEX
  5
15F5A
  8
5-3図補助
 10
27.390536083123742
 20
27.624860622178311
 30
0.0
 70
    16
  0
VERTEX
  5
15F5B
  8
5-3図補助
 10
27.50694704895912
 20
27.469312829489549
 30
0.0
 70
    16
  0
VERTEX
  5
15F5C
  8
5-3図補助
 10
27.71234993668898
 20
27.13222770045947
 30
0.0
 70
    16
  0
VERTEX
  5
15F5D
  8
5-3図補助
 10
27.801262541355779
 20
26.95052349820482
 30
0.0
 70
    16
  0
VERTEX
  5
15F5E
  8
5-3図補助
 10
27.940027020671572
 20
26.564465009565328
 30
0.0
 70
    16
  0
VERTEX
  5
15F5F
  8
5-3図補助
 10
27.989616638929672
 20
26.360084205711949
 30
0.0
 70
    16
  0
VERTEX
  5
15F60
  8
5-3図補助
 10
28.024333641347098
 20
26.069911189853681
 30
0.0
 70
    16
  0
VERTEX
  5
15F61
  8
5-3図補助
 10
28.030369085487131
 20
25.98830933395416
 30
0.0
 70
    16
  0
VERTEX
  5
15F62
  8
5-3図補助
 10
28.032674740168449
 20
25.90654412371892
 30
0.0
 70
    16
  0
SEQEND
  5
15F63
  8
5-3図補助
  0
ARC
  5
15F64
  8
5-3図補助
 10
33.686791810362273
 20
29.611834661953498
 30
0.0
 40
0.45639767671875
 50
90.0
 51
180.0
  0
ARC
  5
15F65
  8
5-3図補助
 10
43.561011877818054
 20
29.611834661953498
 30
0.0
 40
0.45639767671875
 50
0.0
 51
90.0
  0
LINE
  5
15F66
  8
5-3図補助
 10
49.001754833276223
 20
27.912425440595221
 30
0.0
 11
49.001754833276223
 21
29.473526948893461
 31
0.0
  0
LINE
  5
15F67
  8
5-3図補助
 10
49.001754833276223
 20
29.473526948893461
 30
0.0
 11
44.960787023124468
 21
29.473526948893461
 31
0.0
  0
LINE
  5
15F68
  8
5-3図補助
 10
44.686948417093411
 20
29.199688342862231
 30
0.0
 11
44.686948417093411
 21
28.186264046626459
 31
0.0
  0
LINE
  5
15F69
  8
5-3図補助
 10
44.960787023124468
 20
27.912425440595221
 30
0.0
 11
47.96024972944543
 21
27.912425440595221
 31
0.0
  0
ARC
  5
15F6A
  8
5-3図補助
 10
44.960787023124468
 20
29.199688342862231
 30
0.0
 40
0.2738386060312499
 50
90.0
 51
180.0
  0
ARC
  5
15F6B
  8
5-3図補助
 10
44.960787023124468
 20
28.186264046626459
 30
0.0
 40
0.2738386060312499
 50
180.0
 51
270.0
  0
LINE
  5
15F6C
  8
5-3図補助
 10
51.010371420944942
 20
23.39530973765013
 30
0.0
 11
51.010371420944942
 21
31.504172054619939
 31
0.0
  0
ARC
  5
15F6D
  8
5-3図補助
 10
50.736532814913531
 20
31.504172054619939
 30
0.0
 40
0.2738386060312499
 50
0.0
 51
90.0
  0
LINE
  5
15F6E
  8
5-3図補助
 10
50.736532814913531
 20
31.778010660651169
 30
0.0
 11
49.870738681870002
 21
31.778010660651169
 31
0.0
  0
ARC
  5
15F6F
  8
5-3図補助
 10
49.870738681870002
 20
31.504172054619939
 30
0.0
 40
0.2738386060312499
 50
90.0
 51
180.0
  0
LINE
  5
15F70
  8
5-3図補助
 10
51.382337042655102
 20
28.730145118422708
 30
0.0
 11
53.218392545180919
 21
30.360986964687271
 31
0.0
  0
ARC
  5
15F71
  8
5-3図補助
 10
53.400245784544282
 20
30.156250593990158
 30
0.0
 40
0.2738386060312481
 50
51.360867585743392
 51
131.61248318655771
  0
LINE
  5
15F72
  8
5-3図補助
 10
53.571234230682897
 20
30.370144337330569
 30
0.0
 11
54.25307747050558
 21
29.825073152607072
 31
0.0
  0
LINE
  5
15F73
  8
5-3図補助
 10
54.263942273833571
 20
29.406443047543881
 30
0.0
 11
52.498235766480789
 21
27.838087220249431
 31
0.0
  0
LINE
  5
15F74
  8
5-3図補助
 10
52.498235766480789
 20
27.838087220249431
 30
0.0
 11
52.22911969939971
 21
27.622953616460808
 31
0.0
  0
ARC
  5
15F75
  8
5-3図補助
 10
52.400108131236969
 20
27.409059861687211
 30
0.0
 40
0.2738386060312626
 50
128.6391285832166
 51
180.0
  0
LINE
  5
15F76
  8
5-3図補助
 10
52.126269525205558
 20
27.409059861687211
 30
0.0
 11
52.126269525205558
 21
27.257567002004262
 31
0.0
  0
LINE
  5
15F77
  8
5-3図補助
 10
52.491776887428642
 20
26.16169380874739
 30
0.0
 11
53.018988008613661
 21
25.4592656611343
 31
0.0
  0
LINE
  5
15F78
  8
5-3図補助
 10
53.018988008613661
 20
25.4592656611343
 30
0.0
 11
53.837313491592582
 21
24.567207389971969
 31
0.0
  0
LINE
  5
15F79
  8
5-3図補助
 10
53.837313491592582
 20
24.567207389971969
 30
0.0
 11
54.432458734155283
 21
24.344192728933901
 31
0.0
  0
LINE
  5
15F7A
  8
5-3図補助
 10
54.432458734155283
 20
24.344192728933901
 30
0.0
 11
55.10199759671152
 21
24.418530949280029
 31
0.0
  0
LINE
  5
15F7B
  8
5-3図補助
 10
55.10199759671152
 20
24.418530949280029
 30
0.0
 11
55.10199759671152
 21
21.370665780040799
 31
0.0
  0
LINE
  5
15F7C
  8
5-3図補助
 10
55.10199759671152
 20
21.370665780040799
 30
0.0
 11
54.864731173398262
 21
21.370665780040799
 31
0.0
  0
LINE
  5
15F7D
  8
5-3図補助
 10
53.606191668021793
 20
21.873811878459058
 30
0.0
 11
52.572628766909247
 21
22.857429440981971
 31
0.0
  0
LINE
  5
15F7E
  8
5-3図補助
 10
52.572628766909247
 20
22.857429440981971
 30
0.0
 11
51.660152116686533
 21
24.316311247230399
 31
0.0
  0
LINE
  5
15F7F
  8
5-3図補助
 10
51.382337042655102
 20
25.284387700514539
 30
0.0
 11
51.382337042655102
 21
28.730145118422708
 31
0.0
  0
ARC
  5
15F80
  8
5-3図補助
 10
54.864731173398262
 20
23.19625648691558
 30
0.0
 40
1.825590706874999
 50
226.41835229340529
 51
270.0
  0
ARC
  5
15F81
  8
5-3図補助
 10
53.951860232080342
 20
27.257567002004262
 30
0.0
 40
1.825590706874999
 50
180.0
 51
216.89025218270589
  0
ARC
  5
15F82
  8
5-3図補助
 10
53.207927749530221
 20
25.284387700514539
 30
0.0
 40
1.825590706874999
 50
180.0
 51
212.02445718107469
  0
ARC
  5
15F83
  8
5-3図補助
 10
54.082089024366638
 20
29.611179409266828
 30
0.0
 40
0.2738386060312499
 50
311.61248601405993
 51
51.360867585743392
  0
LINE
  5
15F84
  8
5-3図補助
 10
61.424454351420088
 20
26.72149174652704
 30
0.0
 11
61.546316001914221
 21
26.72149174652704
 31
0.0
  0
LINE
  5
15F85
  8
5-3図補助
 10
61.820154607945611
 20
26.995330352558451
 30
0.0
 11
61.820154607945611
 21
27.41404963200446
 31
0.0
  0
LINE
  5
15F86
  8
5-3図補助
 10
61.546316001914221
 20
27.68788823803586
 30
0.0
 11
61.424454351420088
 21
27.68788823803586
 31
0.0
  0
LINE
  5
15F87
  8
5-3図補助
 10
61.150615745389381
 20
27.41404963200446
 30
0.0
 11
61.150615745389381
 21
26.995330352558451
 31
0.0
  0
LINE
  5
15F88
  8
5-3図補助
 10
60.754915488864221
 20
25.978109916056631
 30
0.0
 11
62.141461244476567
 21
25.978109916056631
 31
0.0
  0
LINE
  5
15F89
  8
5-3図補助
 10
62.41529985050763
 20
26.251948522087702
 30
0.0
 11
62.41529985050763
 21
28.231769682821
 31
0.0
  0
LINE
  5
15F8A
  8
5-3図補助
 10
62.141461244476567
 20
28.50560828885224
 30
0.0
 11
60.754915488864221
 21
28.50560828885224
 31
0.0
  0
LINE
  5
15F8B
  8
5-3図補助
 10
60.481076882833129
 20
28.231769682821
 30
0.0
 11
60.481076882833129
 21
26.251948522087702
 31
0.0
  0
LINE
  5
15F8C
  8
5-3図補助
 10
60.754915488864221
 20
29.025975458285089
 30
0.0
 11
62.067068244047398
 21
29.025975458285089
 31
0.0
  0
LINE
  5
15F8D
  8
5-3図補助
 10
62.340906850078468
 20
29.299814064316159
 30
0.0
 11
62.340906850078468
 21
29.346842242032341
 31
0.0
  0
LINE
  5
15F8E
  8
5-3図補助
 10
62.067068244047398
 20
29.620680848063579
 30
0.0
 11
60.754915488864221
 21
29.620680848063579
 31
0.0
  0
LINE
  5
15F8F
  8
5-3図補助
 10
60.481076882833129
 20
29.346842242032341
 30
0.0
 11
60.481076882833129
 21
29.299814064316159
 31
0.0
  0
LINE
  5
15F90
  8
5-3図補助
 10
60.342328697424477
 20
30.51273874623703
 30
0.0
 11
62.479654415922383
 21
30.51273874623703
 31
0.0
  0
LINE
  5
15F91
  8
5-3図補助
 10
63.669946140176563
 20
31.627811678437428
 30
0.0
 11
58.89570990849554
 21
31.627811678437428
 31
0.0
  0
LINE
  5
15F92
  8
5-3図補助
 10
65.073784167157129
 20
25.53208096696974
 30
0.0
 11
65.073784167157129
 21
25.778609530371021
 31
0.0
  0
LINE
  5
15F93
  8
5-3図補助
 10
64.79994556112571
 20
26.052448136402429
 30
0.0
 11
64.17700280207454
 21
26.052448136402429
 31
0.0
  0
LINE
  5
15F94
  8
5-3図補助
 10
63.90316419604347
 20
25.778609530371021
 30
0.0
 11
63.90316419604347
 21
25.53208096696974
 31
0.0
  0
LINE
  5
15F95
  8
5-3図補助
 10
64.17700280207454
 20
27.31619713630587
 30
0.0
 11
64.79994556112571
 21
27.31619713630587
 31
0.0
  0
LINE
  5
15F96
  8
5-3図補助
 10
65.073784167157129
 20
27.59003574233693
 30
0.0
 11
65.073784167157129
 21
27.785740360744882
 31
0.0
  0
LINE
  5
15F97
  8
5-3図補助
 10
64.79994556112571
 20
28.059578966776279
 30
0.0
 11
64.17700280207454
 21
28.059578966776279
 31
0.0
  0
LINE
  5
15F98
  8
5-3図補助
 10
63.90316419604347
 20
27.785740360744882
 30
0.0
 11
63.90316419604347
 21
27.59003574233693
 31
0.0
  0
LINE
  5
15F99
  8
5-3図補助
 10
64.17700280207454
 20
29.32332796667955
 30
0.0
 11
64.79994556112571
 21
29.32332796667955
 31
0.0
  0
LINE
  5
15F9A
  8
5-3図補助
 10
65.073784167157129
 20
29.597166572711121
 30
0.0
 11
65.073784167157129
 21
29.792871191119239
 31
0.0
  0
LINE
  5
15F9B
  8
5-3図補助
 10
64.79994556112571
 20
30.06670979715047
 30
0.0
 11
64.17700280207454
 21
30.06670979715047
 31
0.0
  0
LINE
  5
15F9C
  8
5-3図補助
 10
63.90316419604347
 20
29.792871191119239
 30
0.0
 11
63.90316419604347
 21
29.597166572711121
 31
0.0
  0
LINE
  5
15F9D
  8
5-3図補助
 10
66.13496040456404
 20
25.53208096696974
 30
0.0
 11
66.13496040456404
 21
30.502370391594379
 31
0.0
  0
LINE
  5
15F9E
  8
5-3図補助
 10
65.678562727845275
 20
30.958768068312811
 30
0.0
 11
64.549594049790841
 21
30.958768068312811
 31
0.0
  0
LINE
  5
15F9F
  8
5-3図補助
 10
62.93605209264117
 20
30.056341069518432
 30
0.0
 11
62.93605209264117
 21
25.98847864368852
 31
0.0
  0
LINE
  5
15FA0
  8
5-3図補助
 10
58.86216423617909
 20
25.53208096696974
 30
0.0
 11
58.86216423617909
 21
25.778609530371021
 31
0.0
  0
LINE
  5
15FA1
  8
5-3図補助
 10
58.588325630148027
 20
26.052448136402429
 30
0.0
 11
57.927973418216212
 21
26.052448136402429
 31
0.0
  0
LINE
  5
15FA2
  8
5-3図補助
 10
57.654134812185163
 20
25.778609530371021
 30
0.0
 11
57.654134812185163
 21
25.53208096696974
 31
0.0
  0
LINE
  5
15FA3
  8
5-3図補助
 10
57.927973418216212
 20
27.31619713630587
 30
0.0
 11
58.588325630148027
 21
27.31619713630587
 31
0.0
  0
LINE
  5
15FA4
  8
5-3図補助
 10
58.86216423617909
 20
27.59003574233693
 30
0.0
 11
58.86216423617909
 21
27.785740360744882
 31
0.0
  0
LINE
  5
15FA5
  8
5-3図補助
 10
58.588325630148027
 20
28.059578966776279
 30
0.0
 11
57.927973418216212
 21
28.059578966776279
 31
0.0
  0
LINE
  5
15FA6
  8
5-3図補助
 10
57.654134812185163
 20
27.785740360744882
 30
0.0
 11
57.654134812185163
 21
27.59003574233693
 31
0.0
  0
LINE
  5
15FA7
  8
5-3図補助
 10
57.927973418216212
 20
29.32332796667955
 30
0.0
 11
58.588325630148027
 21
29.32332796667955
 31
0.0
  0
LINE
  5
15FA8
  8
5-3図補助
 10
58.86216423617909
 20
29.597166572711121
 30
0.0
 11
58.86216423617909
 21
29.792871191119239
 31
0.0
  0
LINE
  5
15FA9
  8
5-3図補助
 10
58.588325630148027
 20
30.06670979715047
 30
0.0
 11
57.927973418216212
 21
30.06670979715047
 31
0.0
  0
LINE
  5
15FAA
  8
5-3図補助
 10
57.654134812185163
 20
29.792871191119239
 30
0.0
 11
57.654134812185163
 21
29.597166572711121
 31
0.0
  0
LINE
  5
15FAB
  8
5-3図補助
 10
59.88593102070606
 20
25.98847864368852
 30
0.0
 11
59.885931020705719
 21
30.056341069518432
 31
0.0
  0
LINE
  5
15FAC
  8
5-3図補助
 10
58.016061998880581
 20
30.958768068312811
 30
0.0
 11
57.143420385501962
 21
30.958768068312811
 31
0.0
  0
LINE
  5
15FAD
  8
5-3図補助
 10
56.687022708782841
 20
30.502370391594379
 30
0.0
 11
56.687022708782841
 21
25.53208096696974
 31
0.0
  0
LINE
  5
15FAE
  8
5-3図補助
 10
63.774454445649567
 20
21.220466797827068
 30
0.0
 11
66.358140025415892
 21
21.220466797827068
 31
0.0
  0
LINE
  5
15FAF
  8
5-3図補助
 10
66.358140025415892
 20
21.220466797827068
 30
0.0
 11
66.358140025415892
 21
23.142890680222902
 31
0.0
  0
LINE
  5
15FB0
  8
5-3図補助
 10
65.901742348697127
 20
23.599288356941681
 30
0.0
 11
64.697755044207753
 21
23.599288356941681
 31
0.0
  0
LINE
  5
15FB1
  8
5-3図補助
 10
64.423916438176349
 20
23.873126962972741
 30
0.0
 11
64.423916438176349
 21
24.14316980172682
 31
0.0
  0
LINE
  5
15FB2
  8
5-3図補助
 10
62.861659092212001
 20
24.143169801727161
 30
0.0
 11
62.861659092212001
 21
22.133262151264109
 31
0.0
  0
LINE
  5
15FB3
  8
5-3図補助
 10
58.398066675170547
 20
24.143169801727161
 30
0.0
 11
58.398066675170547
 21
23.79878874262695
 31
0.0
  0
LINE
  5
15FB4
  8
5-3図補助
 10
56.240663467078811
 20
21.220466797827068
 30
0.0
 11
59.047528667697648
 21
21.220466797827068
 31
0.0
  0
LINE
  5
15FB5
  8
5-3図補助
 10
59.9603240211352
 20
22.133262151264109
 30
0.0
 11
59.9603240211352
 21
24.417008407758232
 31
0.0
  0
LINE
  5
15FB6
  8
5-3図補助
 10
58.124228069139143
 20
23.524950136595539
 30
0.0
 11
56.697061143797562
 21
23.524950136595539
 31
0.0
  0
LINE
  5
15FB7
  8
5-3図補助
 10
56.240663467078811
 20
23.068552459876759
 30
0.0
 11
56.240663467078811
 21
21.220466797827068
 31
0.0
  0
LINE
  5
15FB8
  8
5-3図補助
 10
55.868697845368303
 20
24.417008407758232
 30
0.0
 11
58.124228069139143
 21
24.417008407758232
 31
0.0
  0
LINE
  5
15FB9
  8
5-3図補助
 10
67.027678887972485
 20
24.417008407758232
 30
0.0
 11
67.027678887972485
 21
25.07568329025062
 31
0.0
  0
LINE
  5
15FBA
  8
5-3図補助
 10
66.57128121125335
 20
25.53208096696974
 30
0.0
 11
66.13496040456404
 21
25.53208096696974
 31
0.0
  0
LINE
  5
15FBB
  8
5-3図補助
 10
55.868697845368303
 20
25.07568329025062
 30
0.0
 11
55.868697845368303
 21
24.417008407758232
 31
0.0
  0
LINE
  5
15FBC
  8
5-3図補助
 10
59.9603240211352
 20
24.417008407758232
 30
0.0
 11
62.587820486180952
 21
24.417008407758232
 31
0.0
  0
LINE
  5
15FBD
  8
5-3図補助
 10
64.697755044207753
 20
24.41700840775805
 30
0.0
 11
67.027678887972485
 21
24.417008407758232
 31
0.0
  0
ARC
  5
15FBE
  8
5-3図補助
 10
60.754915488864221
 20
29.346842242032341
 30
0.0
 40
0.2738386060312499
 50
90.0
 51
180.0
  0
ARC
  5
15FBF
  8
5-3図補助
 10
62.067068244047398
 20
29.346842242032341
 30
0.0
 40
0.2738386060312499
 50
0.0
 51
90.0
  0
ARC
  5
15FC0
  8
5-3図補助
 10
62.067068244047398
 20
29.299814064316159
 30
0.0
 40
0.2738386060312499
 50
270.0
 51
0.0
  0
ARC
  5
15FC1
  8
5-3図補助
 10
60.754915488864221
 20
29.299814064316159
 30
0.0
 40
0.2738386060312499
 50
180.0
 51
270.0
  0
ARC
  5
15FC2
  8
5-3図補助
 10
60.754915488864221
 20
28.231769682821
 30
0.0
 40
0.2738386060312499
 50
90.0
 51
180.0
  0
ARC
  5
15FC3
  8
5-3図補助
 10
62.141461244476567
 20
28.231769682821
 30
0.0
 40
0.2738386060312499
 50
0.0
 51
90.0
  0
ARC
  5
15FC4
  8
5-3図補助
 10
61.546316001914221
 20
27.41404963200446
 30
0.0
 40
0.2738386060312499
 50
0.0
 51
90.0
  0
ARC
  5
15FC5
  8
5-3図補助
 10
61.424454351420088
 20
27.41404963200446
 30
0.0
 40
0.2738386060312499
 50
90.0
 51
180.0
  0
ARC
  5
15FC6
  8
5-3図補助
 10
61.424454351420088
 20
26.995330352558451
 30
0.0
 40
0.2738386060312499
 50
180.0
 51
270.0
  0
ARC
  5
15FC7
  8
5-3図補助
 10
61.546316001914221
 20
26.995330352558451
 30
0.0
 40
0.2738386060312499
 50
270.0
 51
0.0
  0
ARC
  5
15FC8
  8
5-3図補助
 10
62.141461244476567
 20
26.251948522087702
 30
0.0
 40
0.2738386060312499
 50
270.0
 51
0.0
  0
ARC
  5
15FC9
  8
5-3図補助
 10
60.754915488864221
 20
26.251948522087702
 30
0.0
 40
0.2738386060312499
 50
180.0
 51
270.0
  0
ARC
  5
15FCA
  8
5-3図補助
 10
64.17700280207454
 20
29.792871191119239
 30
0.0
 40
0.2738386060312499
 50
90.0
 51
180.0
  0
ARC
  5
15FCB
  8
5-3図補助
 10
64.79994556112571
 20
29.792871191119239
 30
0.0
 40
0.2738386060312499
 50
0.0
 51
90.0
  0
ARC
  5
15FCC
  8
5-3図補助
 10
64.79994556112571
 20
29.597166572711121
 30
0.0
 40
0.2738386060312499
 50
270.0
 51
0.0
  0
ARC
  5
15FCD
  8
5-3図補助
 10
64.17700280207454
 20
29.597166572711121
 30
0.0
 40
0.2738386060312499
 50
180.0
 51
270.0
  0
ARC
  5
15FCE
  8
5-3図補助
 10
64.17700280207454
 20
27.785740360744882
 30
0.0
 40
0.2738386060312499
 50
90.0
 51
180.0
  0
ARC
  5
15FCF
  8
5-3図補助
 10
64.79994556112571
 20
27.785740360744882
 30
0.0
 40
0.2738386060312499
 50
0.0
 51
90.0
  0
ARC
  5
15FD0
  8
5-3図補助
 10
64.79994556112571
 20
27.59003574233693
 30
0.0
 40
0.2738386060312499
 50
270.0
 51
0.0
  0
ARC
  5
15FD1
  8
5-3図補助
 10
64.17700280207454
 20
27.59003574233693
 30
0.0
 40
0.2738386060312499
 50
180.0
 51
270.0
  0
ARC
  5
15FD2
  8
5-3図補助
 10
64.17700280207454
 20
25.778609530371021
 30
0.0
 40
0.2738386060312499
 50
90.0
 51
180.0
  0
ARC
  5
15FD3
  8
5-3図補助
 10
64.79994556112571
 20
25.778609530371021
 30
0.0
 40
0.2738386060312499
 50
0.0
 51
90.0
  0
ARC
  5
15FD4
  8
5-3図補助
 10
57.927973418216212
 20
29.792871191119239
 30
0.0
 40
0.2738386060312499
 50
90.0
 51
180.0
  0
ARC
  5
15FD5
  8
5-3図補助
 10
58.588325630148027
 20
29.792871191119239
 30
0.0
 40
0.2738386060312499
 50
0.0
 51
90.0
  0
ARC
  5
15FD6
  8
5-3図補助
 10
58.588325630148027
 20
29.597166572711121
 30
0.0
 40
0.2738386060312499
 50
270.0
 51
0.0
  0
ARC
  5
15FD7
  8
5-3図補助
 10
57.927973418216212
 20
29.597166572711121
 30
0.0
 40
0.2738386060312499
 50
180.0
 51
270.0
  0
ARC
  5
15FD8
  8
5-3図補助
 10
57.927973418216212
 20
27.785740360744882
 30
0.0
 40
0.2738386060312499
 50
90.0
 51
180.0
  0
ARC
  5
15FD9
  8
5-3図補助
 10
57.927973418216212
 20
27.59003574233693
 30
0.0
 40
0.2738386060312499
 50
180.0
 51
270.0
  0
ARC
  5
15FDA
  8
5-3図補助
 10
58.588325630148027
 20
27.785740360744882
 30
0.0
 40
0.2738386060312499
 50
0.0
 51
90.0
  0
ARC
  5
15FDB
  8
5-3図補助
 10
58.588325630148027
 20
27.59003574233693
 30
0.0
 40
0.2738386060312499
 50
270.0
 51
0.0
  0
ARC
  5
15FDC
  8
5-3図補助
 10
57.927973418216212
 20
25.778609530371021
 30
0.0
 40
0.2738386060312499
 50
90.0
 51
180.0
  0
ARC
  5
15FDD
  8
5-3図補助
 10
58.588325630148027
 20
25.778609530371021
 30
0.0
 40
0.2738386060312499
 50
0.0
 51
90.0
  0
ARC
  5
15FDE
  8
5-3図補助
 10
62.587820486180952
 20
24.143169801727161
 30
0.0
 40
0.2738386060312499
 50
0.0
 51
90.0
  0
ARC
  5
15FDF
  8
5-3図補助
 10
64.697755044207753
 20
24.14316980172682
 30
0.0
 40
0.2738386060312499
 50
90.0
 51
180.0
  0
ARC
  5
15FE0
  8
5-3図補助
 10
64.697755044207753
 20
23.873126962972741
 30
0.0
 40
0.2738386060312499
 50
180.0
 51
270.0
  0
ARC
  5
15FE1
  8
5-3図補助
 10
58.124228069139143
 20
23.79878874262695
 30
0.0
 40
0.2738386060312499
 50
270.0
 51
0.0
  0
ARC
  5
15FE2
  8
5-3図補助
 10
58.124228069139143
 20
24.143169801727161
 30
0.0
 40
0.2738386060312499
 50
0.0
 51
90.0
  0
LINE
  5
15FE3
  8
5-3図補助
 10
56.687022708782841
 20
25.53208096696974
 30
0.0
 11
56.325095522087402
 21
25.53208096696974
 31
0.0
  0
LINE
  5
15FE4
  8
5-3図補助
 10
58.86216423617909
 20
25.53208096696974
 30
0.0
 11
57.654134812185163
 21
25.53208096696974
 31
0.0
  0
LINE
  5
15FE5
  8
5-3図補助
 10
62.479654415922383
 20
25.53208096696974
 30
0.0
 11
60.342328697424477
 21
25.53208096696974
 31
0.0
  0
LINE
  5
15FE6
  8
5-3図補助
 10
65.073784167157129
 20
25.53208096696974
 30
0.0
 11
63.90316419604347
 21
25.53208096696974
 31
0.0
  0
ARC
  5
15FE7
  8
5-3図補助
 10
57.143420385501962
 20
30.502370391594379
 30
0.0
 40
0.45639767671875
 50
90.0
 51
180.0
  0
ARC
  5
15FE8
  8
5-3図補助
 10
58.016061998880581
 20
31.415165745031771
 30
0.0
 40
0.45639767671875
 50
270.0
 51
344.51186822132968
  0
ARC
  5
15FE9
  8
5-3図補助
 10
58.89570990849554
 20
31.171414001718819
 30
0.0
 40
0.45639767671875
 50
90.0
 51
164.51186822132971
  0
ARC
  5
15FEA
  8
5-3図補助
 10
63.669946140176563
 20
31.171414001718819
 30
0.0
 40
0.45639767671875
 50
15.488131778670271
 51
90.0
  0
ARC
  5
15FEB
  8
5-3図補助
 10
64.549594049790841
 20
31.415165745031771
 30
0.0
 40
0.45639767671875
 50
195.48813177867029
 51
270.0
  0
ARC
  5
15FEC
  8
5-3図補助
 10
65.678562727845275
 20
30.502370391594379
 30
0.0
 40
0.45639767671875
 50
0.0
 51
90.0
  0
ARC
  5
15FED
  8
5-3図補助
 10
65.901742348697127
 20
23.142890680222902
 30
0.0
 40
0.45639767671875
 50
0.0
 51
90.0
  0
ARC
  5
15FEE
  8
5-3図補助
 10
56.697061143797562
 20
23.068552459876759
 30
0.0
 40
0.45639767671875
 50
90.0
 51
180.0
  0
ARC
  5
15FEF
  8
5-3図補助
 10
56.325095522087402
 20
25.07568329025062
 30
0.0
 40
0.45639767671875
 50
90.0
 51
180.0
  0
ARC
  5
15FF0
  8
5-3図補助
 10
66.57128121125335
 20
25.07568329025062
 30
0.0
 40
0.45639767671875
 50
0.0
 51
90.0
  0
ARC
  5
15FF1
  8
5-3図補助
 10
60.342328697424477
 20
30.056341069518432
 30
0.0
 40
0.45639767671875
 50
90.0
 51
180.0
  0
ARC
  5
15FF2
  8
5-3図補助
 10
62.479654415922383
 20
30.056341069518432
 30
0.0
 40
0.45639767671875
 50
0.0
 51
90.0
  0
ARC
  5
15FF3
  8
5-3図補助
 10
60.342328697424477
 20
25.98847864368852
 30
0.0
 40
0.45639767671875
 50
180.0
 51
270.0
  0
ARC
  5
15FF4
  8
5-3図補助
 10
62.479654415922383
 20
25.98847864368852
 30
0.0
 40
0.45639767671875
 50
270.0
 51
0.0
  0
ARC
  5
15FF5
  8
5-3図補助
 10
63.774454445649567
 20
22.133262151264109
 30
0.0
 40
0.9127953534374999
 50
180.0
 51
270.0
  0
ARC
  5
15FF6
  8
5-3図補助
 10
59.047528667697648
 20
22.133262151264109
 30
0.0
 40
0.9127953534374999
 50
270.0
 51
0.0
  0
POLYLINE
  5
15FF7
  8
5-3図補助
 66
     1
 10
0.0
 20
0.0
 30
0.0
  0
VERTEX
  5
1D333
  8
5-3図補助
 10
77.540855702834421
 20
27.836564678727459
 30
0.0
  0
VERTEX
  5
1D334
  8
5-3図補助
 10
70.265561899687924
 20
27.836564678727459
 30
0.0
 42
0.1988162137675779
  0
VERTEX
  5
1D335
  8
5-3図補助
 10
70.072000418581439
 20
27.756430835634799
 30
0.0
  0
VERTEX
  5
1D336
  8
5-3図補助
 10
69.562931842269819
 20
27.247738813193589
 30
0.0
 42
0.1990085245299711
  0
VERTEX
  5
1D337
  8
5-3図補助
 10
69.482654717345241
 20
27.05403405025535
 30
0.0
  0
VERTEX
  5
1D338
  8
5-3図補助
 10
69.482654717345241
 20
23.599288356941681
 30
0.0
  0
VERTEX
  5
1D339
  8
5-3図補助
 10
69.110689095635081
 20
21.740833967259579
 30
0.0
  0
VERTEX
  5
1D33A
  8
5-3図補助
 10
68.366756613084604
 20
21.14612857748093
 30
0.0
  0
VERTEX
  5
1D33B
  8
5-3図補助
 10
67.399645129247375
 20
21.008071857282879
 30
0.0
  0
SEQEND
  5
1D33C
  8
5-3図補助
  0
LINE
  5
15FF8
  8
5-3図補助
 10
72.184544802384522
 20
31.256120576707438
 30
0.0
 11
69.384527701666144
 21
31.256120576707438
 31
0.0
  0
LINE
  5
15FF9
  8
5-3図補助
 10
69.110689095635081
 20
30.982281970676372
 30
0.0
 11
69.110689095635081
 21
30.191871962489611
 31
0.0
  0
LINE
  5
15FFA
  8
5-3図補助
 10
69.384527701666144
 20
29.918033356458551
 30
0.0
 11
70.324714215574446
 21
29.918033356458551
 31
0.0
  0
LINE
  5
15FFB
  8
5-3図補助
 10
76.178043342907614
 20
29.225475843970031
 30
0.0
 11
76.178043342907614
 21
29.64419475042714
 31
0.0
  0
LINE
  5
15FFC
  8
5-3図補助
 10
74.565127011763735
 20
28.951637237938961
 30
0.0
 11
72.211469152749061
 21
28.951637237938961
 31
0.0
  0
LINE
  5
15FFD
  8
5-3図補助
 10
76.451881948938691
 20
29.918033356458551
 30
0.0
 11
77.094496461130376
 21
29.918033356458551
 31
0.0
  0
LINE
  5
15FFE
  8
5-3図補助
 10
77.36833506716178
 20
30.191871962489611
 30
0.0
 11
77.36833506716178
 21
30.982281970676372
 31
0.0
  0
LINE
  5
15FFF
  8
5-3図補助
 10
77.094496461130376
 20
31.256120576707438
 30
0.0
 11
74.51765898126385
 21
31.256120576707438
 31
0.0
  0
LINE
  5
16000
  8
5-3図補助
 10
70.598552821605523
 20
29.64419475042714
 30
0.0
 11
70.598552821605523
 21
29.225475843970031
 31
0.0
  0
LINE
  5
16001
  8
5-3図補助
 10
70.324714215574446
 20
28.951637237938961
 30
0.0
 11
68.268629597405862
 21
28.951637237938961
 31
0.0
  0
LINE
  5
16002
  8
5-3図補助
 10
67.994790991374458
 20
28.677798631907901
 30
0.0
 11
67.994790991374458
 21
27.836564678727459
 31
0.0
  0
LINE
  5
16003
  8
5-3図補助
 10
77.814694308865811
 20
28.110403284758849
 30
0.0
 11
77.814694308865811
 21
28.677798631907901
 31
0.0
  0
LINE
  5
16004
  8
5-3図補助
 10
77.540855702834421
 20
28.951637237938961
 30
0.0
 11
76.451881948938691
 21
28.951637237938961
 31
0.0
  0
LINE
  5
16005
  8
5-3図補助
 10
74.838965617795139
 20
29.64419475042714
 30
0.0
 11
74.838965617795139
 21
29.225475843970031
 31
0.0
  0
LINE
  5
16006
  8
5-3図補助
 10
71.937630546717656
 20
29.225475843970031
 30
0.0
 11
71.937630546717656
 21
29.64419475042714
 31
0.0
  0
LINE
  5
16007
  8
5-3図補助
 10
72.211469152749061
 20
29.918033356458551
 30
0.0
 11
74.565127011763735
 21
29.918033356458551
 31
0.0
  0
LINE
  5
16008
  8
5-3図補助
 10
74.243820375232445
 20
31.529959182738839
 30
0.0
 11
74.243820375232445
 21
31.800002021492929
 31
0.0
  0
LINE
  5
16009
  8
5-3図補助
 10
73.969981769201368
 20
32.073840627524334
 30
0.0
 11
72.73222201444699
 21
32.073840627524334
 31
0.0
  0
LINE
  5
1600A
  8
5-3図補助
 10
72.458383408415941
 20
31.800002021492929
 30
0.0
 11
72.458383408415941
 21
31.52995918273918
 31
0.0
  0
ARC
  5
1600B
  8
5-3図補助
 10
72.211469152749061
 20
29.64419475042714
 30
0.0
 40
0.2738386060312499
 50
90.0
 51
180.0
  0
ARC
  5
1600C
  8
5-3図補助
 10
74.565127011763735
 20
29.64419475042714
 30
0.0
 40
0.2738386060312499
 50
0.0
 51
90.0
  0
ARC
  5
1600D
  8
5-3図補助
 10
74.565127011763735
 20
29.225475843970031
 30
0.0
 40
0.2738386060312499
 50
270.0
 51
0.0
  0
ARC
  5
1600E
  8
5-3図補助
 10
72.211469152749061
 20
29.225475843970031
 30
0.0
 40
0.2738386060312499
 50
180.0
 51
270.0
  0
ARC
  5
1600F
  8
5-3図補助
 10
76.451881948938691
 20
29.64419475042714
 30
0.0
 40
0.2738386060312499
 50
90.0
 51
180.0
  0
ARC
  5
16010
  8
5-3図補助
 10
76.451881948938691
 20
29.225475843970031
 30
0.0
 40
0.2738386060312499
 50
180.0
 51
270.0
  0
ARC
  5
16011
  8
5-3図補助
 10
70.324714215574446
 20
29.225475843970031
 30
0.0
 40
0.2738386060312499
 50
270.0
 51
0.0
  0
ARC
  5
16012
  8
5-3図補助
 10
70.324714215574446
 20
29.64419475042714
 30
0.0
 40
0.2738386060312499
 50
0.0
 51
90.0
  0
ARC
  5
16013
  8
5-3図補助
 10
69.384527701666144
 20
30.191871962489611
 30
0.0
 40
0.2738386060312499
 50
180.0
 51
270.0
  0
ARC
  5
16014
  8
5-3図補助
 10
77.094496461130376
 20
30.191871962489611
 30
0.0
 40
0.2738386060312499
 50
270.0
 51
0.0
  0
ARC
  5
16015
  8
5-3図補助
 10
72.73222201444699
 20
31.800002021492929
 30
0.0
 40
0.2738386060312499
 50
90.0
 51
180.0
  0
ARC
  5
16016
  8
5-3図補助
 10
73.969981769201368
 20
31.800002021492929
 30
0.0
 40
0.2738386060312499
 50
0.0
 51
90.0
  0
ARC
  5
16017
  8
5-3図補助
 10
74.51765898126385
 20
31.529959182738839
 30
0.0
 40
0.2738386060312499
 50
180.0
 51
270.0
  0
ARC
  5
16018
  8
5-3図補助
 10
72.184544802384522
 20
31.52995918273918
 30
0.0
 40
0.2738386060312499
 50
270.0
 51
0.0
  0
ARC
  5
16019
  8
5-3図補助
 10
69.384527701666144
 20
30.982281970676372
 30
0.0
 40
0.2738386060312499
 50
90.0
 51
180.0
  0
ARC
  5
1601A
  8
5-3図補助
 10
77.094496461130376
 20
30.982281970676372
 30
0.0
 40
0.2738386060312499
 50
0.0
 51
90.0
  0
ARC
  5
1601B
  8
5-3図補助
 10
77.540855702834421
 20
28.677798631907901
 30
0.0
 40
0.2738386060312499
 50
0.0
 51
90.0
  0
ARC
  5
1601C
  8
5-3図補助
 10
77.540855702834421
 20
28.110403284758849
 30
0.0
 40
0.2738386060312499
 50
270.0
 51
0.0
  0
ARC
  5
1601D
  8
5-3図補助
 10
68.268629597405862
 20
28.677798631907901
 30
0.0
 40
0.2738386060312499
 50
90.0
 51
180.0
  0
LINE
  5
1601E
  8
5-3図補助
 10
74.913359237788683
 20
23.947465183318879
 30
0.0
 11
74.913359237788683
 21
24.06883158138103
 31
0.0
  0
LINE
  5
1601F
  8
5-3図補助
 10
74.913359237788683
 20
25.582904911962739
 30
0.0
 11
74.913359237788683
 21
25.704271310025231
 31
0.0
  0
LINE
  5
16020
  8
5-3図補助
 10
75.187197843820101
 20
24.34267018741226
 30
0.0
 11
75.829811736447041
 21
24.34267018741226
 31
0.0
  0
LINE
  5
16021
  8
5-3図補助
 10
76.103650342478119
 20
24.61650879344349
 30
0.0
 11
76.103650342478119
 21
25.035227699900609
 31
0.0
  0
LINE
  5
16022
  8
5-3図補助
 10
75.829811736447041
 20
25.309066305931669
 30
0.0
 11
75.187197843820101
 21
25.309066305931669
 31
0.0
  0
LINE
  5
16023
  8
5-3図補助
 10
73.276708891395202
 20
24.06883158138103
 30
0.0
 11
73.276708891395202
 21
23.947465183318879
 31
0.0
  0
LINE
  5
16024
  8
5-3図補助
 10
74.913359237788683
 20
27.069668572904241
 30
0.0
 11
74.913359237788683
 21
27.191034970966388
 31
0.0
  0
LINE
  5
16025
  8
5-3図補助
 10
74.639520631757279
 20
27.4648735769978
 30
0.0
 11
73.550547497426265
 21
27.4648735769978
 31
0.0
  0
LINE
  5
16026
  8
5-3図補助
 10
73.276708891395202
 20
27.191034970966388
 30
0.0
 11
73.276708891395202
 21
27.069668572904241
 31
0.0
  0
LINE
  5
16027
  8
5-3図補助
 10
73.002870285363798
 20
26.795829966872841
 30
0.0
 11
72.062683151891093
 21
26.795829966873178
 31
0.0
  0
LINE
  5
16028
  8
5-3図補助
 10
75.187197843820101
 20
25.978109916056631
 30
0.0
 11
76.648137219426332
 21
25.978109916056631
 31
0.0
  0
LINE
  5
16029
  8
5-3図補助
 10
76.921975825457395
 20
26.251948522087702
 30
0.0
 11
76.921975825457395
 21
26.521991360841781
 31
0.0
  0
LINE
  5
1602A
  8
5-3図補助
 10
76.648137219426332
 20
26.795829966872841
 30
0.0
 11
75.187197843820101
 21
26.795829966872841
 31
0.0
  0
LINE
  5
1602B
  8
5-3図補助
 10
69.780227958190963
 20
24.714360916153019
 30
0.0
 11
70.43433504683459
 21
24.714360916153019
 31
0.0
  0
ARC
  5
1602C
  8
5-3図補助
 10
70.43433504683459
 20
25.627156269590579
 30
0.0
 40
0.9127953534374999
 50
270.0
 51
307.85445480948721
  0
LINE
  5
1602D
  8
5-3図補助
 10
70.994478991887519
 20
24.90643848982025
 30
0.0
 11
71.416878304584785
 21
25.234728458574772
 31
0.0
  0
LINE
  5
1602E
  8
5-3図補助
 10
71.416878304584785
 20
25.234728458574772
 30
0.0
 11
71.686785946412584
 21
25.81909565219555
 31
0.0
  0
LINE
  5
1602F
  8
5-3図補助
 10
73.002870285363798
 20
23.673626577287301
 30
0.0
 11
69.854620958620131
 21
23.673626577287301
 31
0.0
  0
LINE
  5
16030
  8
5-3図補助
 10
69.854620958620131
 20
23.673626577287301
 30
0.0
 11
69.854620958620131
 21
22.28193859195656
 31
0.0
  0
ARC
  5
16031
  8
5-3図補助
 10
70.767416312057691
 20
22.28193859195656
 30
0.0
 40
0.9127953534374999
 50
180.0
 51
270.0
  0
LINE
  5
16032
  8
5-3図補助
 10
70.767416312057691
 20
21.369143238518649
 30
0.0
 11
76.901898955428265
 21
21.369143238518649
 31
0.0
  0
ARC
  5
16033
  8
5-3図補助
 10
76.901898955428265
 20
22.28193859195656
 30
0.0
 40
0.9127953534374999
 50
270.0
 51
0.0
  0
LINE
  5
16034
  8
5-3図補助
 10
77.814694308865811
 20
22.28193859195656
 30
0.0
 11
77.814694308865811
 21
23.673626577287301
 31
0.0
  0
LINE
  5
16035
  8
5-3図補助
 10
77.814694308865811
 20
23.673626577287301
 30
0.0
 11
75.187197843820101
 21
23.673626577287301
 31
0.0
  0
LINE
  5
16036
  8
5-3図補助
 10
73.276708891395202
 20
25.704271310025231
 30
0.0
 11
73.276708891395202
 21
25.582904911962739
 31
0.0
  0
LINE
  5
16037
  8
5-3図補助
 10
71.935387942780864
 20
25.978109916056631
 30
0.0
 11
73.002870285363798
 21
25.978109916056631
 31
0.0
  0
LINE
  5
16038
  8
5-3図補助
 10
73.002870285363798
 20
25.309066305931669
 30
0.0
 11
72.211469152749061
 21
25.309066305931669
 31
0.0
  0
LINE
  5
16039
  8
5-3図補助
 10
71.937630546717656
 20
25.035227699900609
 30
0.0
 11
71.937630546717656
 21
24.61650879344349
 31
0.0
  0
LINE
  5
1603A
  8
5-3図補助
 10
72.211469152749061
 20
24.34267018741226
 30
0.0
 11
73.002870285363798
 21
24.34267018741226
 31
0.0
  0
LINE
  5
1603B
  8
5-3図補助
 10
71.788844545859675
 20
27.069668572904241
 30
0.0
 11
71.788844545859675
 21
27.116696750620431
 31
0.0
  0
LINE
  5
1603C
  8
5-3図補助
 10
71.515005939828626
 20
27.390535356651661
 30
0.0
 11
70.649211806784734
 21
27.390535356651661
 31
0.0
  0
LINE
  5
1603D
  8
5-3図補助
 10
70.37537320075333
 20
27.116696750620431
 30
0.0
 11
70.37537320075333
 21
26.275462797440319
 31
0.0
  0
ARC
  5
1603E
  8
5-3図補助
 10
75.187197843820101
 20
25.704271310025231
 30
0.0
 40
0.2738386060312499
 50
90.0
 51
180.0
  0
ARC
  5
1603F
  8
5-3図補助
 10
75.187197843820101
 20
25.582904911962739
 30
0.0
 40
0.2738386060312499
 50
180.0
 51
270.0
  0
ARC
  5
16040
  8
5-3図補助
 10
75.187197843820101
 20
24.06883158138103
 30
0.0
 40
0.2738386060312499
 50
90.0
 51
180.0
  0
ARC
  5
16041
  8
5-3図補助
 10
75.187197843820101
 20
23.947465183318879
 30
0.0
 40
0.2738386060312499
 50
180.0
 51
270.0
  0
ARC
  5
16042
  8
5-3図補助
 10
73.002870285363798
 20
24.06883158138103
 30
0.0
 40
0.2738386060312499
 50
0.0
 51
90.0
  0
ARC
  5
16043
  8
5-3図補助
 10
73.002870285363798
 20
23.947465183318879
 30
0.0
 40
0.2738386060312499
 50
270.0
 51
0.0
  0
ARC
  5
16044
  8
5-3図補助
 10
73.002870285363798
 20
25.582904911962739
 30
0.0
 40
0.2738386060312499
 50
270.0
 51
0.0
  0
ARC
  5
16045
  8
5-3図補助
 10
73.002870285363798
 20
25.704271310025231
 30
0.0
 40
0.2738386060312499
 50
0.0
 51
90.0
  0
ARC
  5
16046
  8
5-3図補助
 10
73.002870285363798
 20
27.069668572904241
 30
0.0
 40
0.2738386060312499
 50
270.0
 51
0.0
  0
ARC
  5
16047
  8
5-3図補助
 10
75.187197843820101
 20
27.069668572904241
 30
0.0
 40
0.2738386060312499
 50
180.0
 51
270.0
  0
ARC
  5
16048
  8
5-3図補助
 10
76.648137219426332
 20
26.521991360841781
 30
0.0
 40
0.2738386060312499
 50
0.0
 51
90.0
  0
ARC
  5
16049
  8
5-3図補助
 10
76.648137219426332
 20
26.251948522087702
 30
0.0
 40
0.2738386060312499
 50
270.0
 51
0.0
  0
ARC
  5
1604A
  8
5-3図補助
 10
75.829811736447041
 20
25.035227699900609
 30
0.0
 40
0.2738386060312499
 50
0.0
 51
90.0
  0
ARC
  5
1604B
  8
5-3図補助
 10
75.829811736447041
 20
24.61650879344349
 30
0.0
 40
0.2738386060312499
 50
270.0
 51
0.0
  0
ARC
  5
1604C
  8
5-3図補助
 10
73.550547497426265
 20
27.191034970966388
 30
0.0
 40
0.2738386060312499
 50
90.0
 51
180.0
  0
ARC
  5
1604D
  8
5-3図補助
 10
74.639520631757279
 20
27.191034970966388
 30
0.0
 40
0.2738386060312499
 50
0.0
 51
90.0
  0
ARC
  5
1604E
  8
5-3図補助
 10
71.515005939828626
 20
27.116696750620431
 30
0.0
 40
0.2738386060312499
 50
0.0
 51
90.0
  0
ARC
  5
1604F
  8
5-3図補助
 10
70.649211806784734
 20
27.116696750620431
 30
0.0
 40
0.2738386060312499
 50
90.0
 51
180.0
  0
ARC
  5
16050
  8
5-3図補助
 10
71.935387942780864
 20
25.704271310025231
 30
0.0
 40
0.2738386060312499
 50
90.0
 51
155.2087193780919
  0
ARC
  5
16051
  8
5-3図補助
 10
72.062683151891093
 20
27.069668572904241
 30
0.0
 40
0.2738386060312499
 50
180.0
 51
270.0
  0
ARC
  5
16052
  8
5-3図補助
 10
72.211469152749061
 20
25.035227699900609
 30
0.0
 40
0.2738386060312499
 50
90.0
 51
180.0
  0
ARC
  5
16053
  8
5-3図補助
 10
72.211469152749061
 20
24.61650879344349
 30
0.0
 40
0.2738386060312499
 50
180.0
 51
270.0
  0
LINE
  5
16054
  8
5-3図補助
 10
89.240138386602496
 20
24.865390545101171
 30
0.0
 11
89.463318007454674
 21
24.196346934976209
 31
0.0
  0
LINE
  5
16055
  8
5-3図補助
 10
89.463318007454674
 20
24.196346934976209
 30
0.0
 11
89.984070249587845
 21
24.04767049428429
 31
0.0
  0
LINE
  5
16056
  8
5-3図補助
 10
89.984070249587845
 20
24.04767049428429
 30
0.0
 11
90.504822491721384
 21
24.04767049428429
 31
0.0
  0
LINE
  5
16057
  8
5-3図補助
 10
90.504822491721384
 20
24.04767049428429
 30
0.0
 11
90.504822491721384
 21
20.999805325044878
 31
0.0
  0
LINE
  5
16058
  8
5-3図補助
 10
90.504822491721384
 20
20.999805325044878
 30
0.0
 11
90.396336022744109
 21
20.999805325044878
 31
0.0
  0
LINE
  5
16059
  8
5-3図補助
 10
83.437467624883794
 20
21.07414354539085
 30
0.0
 11
84.244493109112256
 21
21.231783353919148
 31
0.0
  0
LINE
  5
1605A
  8
5-3図補助
 10
83.437467624883794
 20
21.07414354539085
 30
0.0
 11
83.437467624883794
 21
23.898994426581591
 31
0.0
  0
LINE
  5
1605B
  8
5-3図補助
 10
83.437467624883794
 20
23.898994426581591
 30
0.0
 11
84.255793107862729
 21
23.973332646927378
 31
0.0
  0
LINE
  5
1605C
  8
5-3図補助
 10
84.255793107862729
 20
23.973332646927378
 30
0.0
 11
84.702152349567456
 21
24.345023375668308
 31
0.0
  0
LINE
  5
1605D
  8
5-3図補助
 10
84.702152349567456
 20
24.345023375668308
 30
0.0
 11
84.925331970419307
 21
24.716714104408901
 31
0.0
  0
LINE
  5
1605E
  8
5-3図補助
 10
84.925331970419307
 20
24.716714104408901
 30
0.0
 11
84.999725590413192
 21
24.91495033496906
 31
0.0
  0
LINE
  5
1605F
  8
5-3図補助
 10
89.240138386602496
 20
24.86539054510083
 30
0.0
 11
89.240138386602496
 21
26.129139545004271
 31
0.0
  0
LINE
  5
16060
  8
5-3図補助
 10
88.364305818544182
 20
25.855300938972871
 30
0.0
 11
88.364305818544182
 21
23.598892348666329
 31
0.0
  0
LINE
  5
16061
  8
5-3図補助
 10
85.966837074250435
 20
23.879306741340791
 30
0.0
 11
85.966837074250435
 21
25.855300938972871
 31
0.0
  0
LINE
  5
16062
  8
5-3図補助
 10
84.999725590413192
 20
26.05480132465831
 30
0.0
 11
84.999725590413192
 21
24.91495033496906
 31
0.0
  0
LINE
  5
16063
  8
5-3図補助
 10
83.511861244878006
 20
29.325681154935769
 30
0.0
 11
83.958220486581723
 21
29.77171047701156
 31
0.0
  0
LINE
  5
16064
  8
5-3図補助
 10
83.958220486581723
 20
29.77171047701156
 30
0.0
 11
84.181400107434257
 21
30.273493253110789
 31
0.0
  0
LINE
  5
16065
  8
5-3図補助
 10
85.594870832975204
 20
29.971210862696658
 30
0.0
 11
85.594870832975204
 21
31.207649819970491
 31
0.0
  0
LINE
  5
16066
  8
5-3図補助
 10
85.321032226944155
 20
31.481488426001562
 30
0.0
 11
84.455238713465306
 21
31.481488426001562
 31
0.0
  0
LINE
  5
16067
  8
5-3図補助
 10
84.181400107434257
 20
31.207649819970491
 30
0.0
 11
84.181400107434257
 21
30.273493253110789
 31
0.0
  0
LINE
  5
16068
  8
5-3図補助
 10
86.561982936377504
 20
21.148481765736811
 30
0.0
 11
87.975453661919474
 21
21.148481765736811
 31
0.0
  0
LINE
  5
16069
  8
5-3図補助
 10
87.975453661919474
 20
21.148481765736811
 30
0.0
 11
87.975453661919474
 21
26.129139545004271
 31
0.0
  0
LINE
  5
1606A
  8
5-3図補助
 10
87.701615055888084
 20
32.001855595434073
 30
0.0
 11
86.835821542408937
 21
32.001855595434073
 31
0.0
  0
LINE
  5
1606B
  8
5-3図補助
 10
86.561982936377504
 20
31.72801698940318
 30
0.0
 11
86.561982936377504
 21
29.971210862696658
 31
0.0
  0
LINE
  5
1606C
  8
5-3図補助
 10
90.207249870440023
 20
26.402978151035679
 30
0.0
 11
90.207249870440023
 21
27.19338815922244
 31
0.0
  0
LINE
  5
1606D
  8
5-3図補助
 10
89.933411264408988
 20
27.46722676525351
 30
0.0
 11
88.249292267950537
 21
27.46722676525351
 31
0.0
  0
LINE
  5
1606E
  8
5-3図補助
 10
85.124777576021202
 20
28.507961104119229
 30
0.0
 11
86.288144330346455
 21
28.507961104119229
 31
0.0
  0
LINE
  5
1606F
  8
5-3図補助
 10
89.835283629165147
 20
28.781799710150288
 30
0.0
 11
89.835283629165147
 21
29.423533650634361
 31
0.0
  0
LINE
  5
16070
  8
5-3図補助
 10
89.561445023133757
 20
29.697372256665592
 30
0.0
 11
88.249292267950537
 21
29.697372256665432
 31
0.0
  0
LINE
  5
16071
  8
5-3図補助
 10
83.785699850909424
 20
26.05480132465831
 30
0.0
 11
84.999725590413192
 21
26.05480132465831
 31
0.0
  0
LINE
  5
16072
  8
5-3図補助
 10
83.511861244878006
 20
29.325681154935769
 30
0.0
 11
83.511861244878006
 21
26.32863993068954
 31
0.0
  0
LINE
  5
16073
  8
5-3図補助
 10
82.023996899342166
 20
27.24421210421545
 30
0.0
 11
82.711081483710387
 21
26.351662788256739
 31
0.0
  0
LINE
  5
16074
  8
5-3図補助
 10
82.767928762327571
 20
26.18462283501102
 30
0.0
 11
82.767928762327571
 21
25.31141949418739
 31
0.0
  0
LINE
  5
16075
  8
5-3図補助
 10
82.767928762327571
 20
25.31141949418739
 30
0.0
 11
82.29783550537357
 21
25.31141949418739
 31
0.0
  0
LINE
  5
16076
  8
5-3図補助
 10
78.899482207413513
 20
22.560907206332178
 30
0.0
 11
79.595910633401019
 21
22.560907206332178
 31
0.0
  0
LINE
  5
16077
  8
5-3図補助
 10
79.79938585288734
 20
22.65148256670798
 30
0.0
 11
80.387346552948998
 21
23.304289036802761
 31
0.0
  0
LINE
  5
16078
  8
5-3図補助
 10
80.387346552948998
 20
23.304289036802761
 30
0.0
 11
80.684919174230032
 21
23.86182531640836
 31
0.0
  0
LINE
  5
16079
  8
5-3図補助
 10
78.899482207413513
 20
22.560907206332178
 30
0.0
 11
78.899482207413513
 21
24.960449141629429
 31
0.0
  0
LINE
  5
1607A
  8
5-3図補助
 10
79.092843212304885
 20
25.22219508308412
 30
0.0
 11
79.763103779886279
 21
25.428276454651972
 31
0.0
  0
LINE
  5
1607B
  8
5-3図補助
 10
79.920341253018051
 20
25.554084448434331
 30
0.0
 11
80.164166932096819
 21
25.980463104312349
 31
0.0
  0
LINE
  5
1607C
  8
5-3図補助
 10
80.164166932096819
 20
25.980463104312349
 30
0.0
 11
80.684919174230032
 21
27.095536036512922
 31
0.0
  0
LINE
  5
1607D
  8
5-3図補助
 10
80.958757780261095
 20
21.148481765736811
 30
0.0
 11
81.750158293311074
 21
21.148481765736811
 31
0.0
  0
LINE
  5
1607E
  8
5-3図補助
 10
82.023996899342166
 20
21.422320371768389
 30
0.0
 11
82.023996899342166
 21
25.03758088815632
 31
0.0
  0
LINE
  5
1607F
  8
5-3図補助
 10
81.750158293311074
 20
32.076193815780378
 30
0.0
 11
80.958757780261095
 21
32.076193815780378
 31
0.0
  0
LINE
  5
16080
  8
5-3図補助
 10
80.684919174230032
 20
31.802355209748981
 30
0.0
 11
80.684919174230032
 21
29.89687264235069
 31
0.0
  0
LINE
  5
16081
  8
5-3図補助
 10
79.3221074338676
 20
28.433623256762161
 30
0.0
 11
80.411080568198628
 21
28.433623256762161
 31
0.0
  0
LINE
  5
16082
  8
5-3図補助
 10
82.619142761469575
 20
28.707461862793391
 30
0.0
 11
82.619142761469575
 21
29.349195430288219
 31
0.0
  0
LINE
  5
16083
  8
5-3図補助
 10
82.345304155438527
 20
29.623034036319631
 30
0.0
 11
82.29783550537357
 21
29.623034036319631
 31
0.0
  0
LINE
  5
16084
  8
5-3図補助
 10
79.048268827836196
 20
29.349195430288219
 30
0.0
 11
79.048268827836196
 21
28.707461862793391
 31
0.0
  0
LINE
  5
16085
  8
5-3図補助
 10
80.684919174230032
 20
23.86182531640836
 30
0.0
 11
80.684919174230032
 21
21.422320371768389
 31
0.0
  0
LINE
  5
16086
  8
5-3図補助
 10
82.023996899342166
 20
27.24421210421545
 30
0.0
 11
82.023996899342166
 21
28.15978465073092
 31
0.0
  0
LINE
  5
16087
  8
5-3図補助
 10
82.023996899342166
 20
29.89687264235069
 30
0.0
 11
82.023996899342166
 21
31.802355209748981
 31
0.0
  0
LINE
  5
16088
  8
5-3図補助
 10
80.684919174230032
 20
28.15978465073092
 30
0.0
 11
80.684919174230032
 21
27.095536036512922
 31
0.0
  0
LINE
  5
16089
  8
5-3図補助
 10
80.411080568198628
 20
29.623034036319631
 30
0.0
 11
79.3221074338676
 21
29.623034036319631
 31
0.0
  0
LINE
  5
1608A
  8
5-3図補助
 10
82.29783550537357
 20
28.433623256762161
 30
0.0
 11
82.345304155438527
 21
28.433623256762161
 31
0.0
  0
LINE
  5
1608B
  8
5-3図補助
 10
84.850938969990153
 20
27.74106537128457
 30
0.0
 11
84.850938969990153
 21
28.234122498087821
 31
0.0
  0
LINE
  5
1608C
  8
5-3図補助
 10
86.240675680281853
 20
26.129139545004271
 30
0.0
 11
86.288144330346455
 21
26.129139545004271
 31
0.0
  0
LINE
  5
1608D
  8
5-3図補助
 10
89.240138386602496
 20
26.129139545004271
 30
0.0
 11
89.933411264408988
 21
26.129139545004271
 31
0.0
  0
LINE
  5
1608E
  8
5-3図補助
 10
86.288144330346455
 20
27.46722676525351
 30
0.0
 11
85.124777576021202
 21
27.46722676525351
 31
0.0
  0
LINE
  5
1608F
  8
5-3図補助
 10
87.975453661919474
 20
26.129139545004271
 30
0.0
 11
87.999187677169076
 21
26.129139545004271
 31
0.0
  0
LINE
  5
16090
  8
5-3図補助
 10
88.249292267950537
 20
28.507961104119229
 30
0.0
 11
89.561445023133757
 21
28.507961104119229
 31
0.0
  0
LINE
  5
16091
  8
5-3図補助
 10
86.561982936377504
 20
28.234122498087821
 30
0.0
 11
86.561982936377504
 21
27.741065371284911
 31
0.0
  0
LINE
  5
16092
  8
5-3図補助
 10
87.975453661919474
 20
29.971210862696829
 30
0.0
 11
87.975453661919474
 21
31.72801698940318
 31
0.0
  0
LINE
  5
16093
  8
5-3図補助
 10
86.561982936377504
 20
25.855300938972871
 30
0.0
 11
86.561982936377504
 21
21.148481765736811
 31
0.0
  0
LINE
  5
16094
  8
5-3図補助
 10
87.975453661919474
 20
27.741065371284911
 30
0.0
 11
87.975453661919474
 21
28.234122498087821
 31
0.0
  0
LINE
  5
16095
  8
5-3図補助
 10
86.288144330346455
 20
29.697372256665432
 30
0.0
 11
85.868709439006608
 21
29.697372256665432
 31
0.0
  0
ARC
  5
16096
  8
5-3図補助
 10
85.124777576021202
 20
28.234122498087821
 30
0.0
 40
0.2738386060312499
 50
90.0
 51
180.0
  0
ARC
  5
16097
  8
5-3図補助
 10
86.288144330346455
 20
28.234122498087821
 30
0.0
 40
0.2738386060312499
 50
0.0
 51
90.0
  0
ARC
  5
16098
  8
5-3図補助
 10
86.288144330346455
 20
27.741065371284911
 30
0.0
 40
0.2738386060312499
 50
270.0
 51
0.0
  0
ARC
  5
16099
  8
5-3図補助
 10
85.124777576021202
 20
27.74106537128457
 30
0.0
 40
0.2738386060312499
 50
180.0
 51
270.0
  0
ARC
  5
1609A
  8
5-3図補助
 10
88.249292267950537
 20
28.234122498087821
 30
0.0
 40
0.2738386060312499
 50
90.0
 51
180.0
  0
ARC
  5
1609B
  8
5-3図補助
 10
88.249292267950537
 20
27.741065371284911
 30
0.0
 40
0.2738386060312499
 50
180.0
 51
270.0
  0
ARC
  5
1609C
  8
5-3図補助
 10
88.249292267950537
 20
29.971210862696829
 30
0.0
 40
0.2738386060312499
 50
180.0
 51
270.0
  0
ARC
  5
1609D
  8
5-3図補助
 10
86.288144330346455
 20
29.971210862696658
 30
0.0
 40
0.2738386060312499
 50
270.0
 51
0.0
  0
ARC
  5
1609E
  8
5-3図補助
 10
84.455238713465306
 20
31.207649819970491
 30
0.0
 40
0.2738386060312499
 50
90.0
 51
180.0
  0
ARC
  5
1609F
  8
5-3図補助
 10
85.321032226944155
 20
31.207649819970491
 30
0.0
 40
0.2738386060312499
 50
0.0
 51
90.0
  0
ARC
  5
160A0
  8
5-3図補助
 10
85.868709439006608
 20
29.971210862696658
 30
0.0
 40
0.2738386060312499
 50
180.0
 51
270.0
  0
ARC
  5
160A1
  8
5-3図補助
 10
86.835821542408937
 20
31.72801698940318
 30
0.0
 40
0.2738386060312499
 50
90.0
 51
180.0
  0
ARC
  5
160A2
  8
5-3図補助
 10
87.701615055888084
 20
31.72801698940318
 30
0.0
 40
0.2738386060312499
 50
0.0
 51
90.0
  0
ARC
  5
160A3
  8
5-3図補助
 10
89.933411264408988
 20
27.19338815922244
 30
0.0
 40
0.2738386060312499
 50
0.0
 51
90.0
  0
ARC
  5
160A4
  8
5-3図補助
 10
88.011028496872342
 20
25.764595907342731
 30
0.0
 40
0.3647358890630913
 50
14.39982233335545
 51
91.860382374963308
  0
ARC
  5
160A5
  8
5-3図補助
 10
86.240675680281853
 20
25.855300938972871
 30
0.0
 40
0.2738386060312499
 50
90.0
 51
180.0
  0
ARC
  5
160A6
  8
5-3図補助
 10
86.288144330346455
 20
25.855300938972871
 30
0.0
 40
0.2738386060312499
 50
0.0
 51
90.0
  0
ARC
  5
160A7
  8
5-3図補助
 10
82.29783550537357
 20
29.89687264235069
 30
0.0
 40
0.2738386060312499
 50
180.0
 51
270.0
  0
ARC
  5
160A8
  8
5-3図補助
 10
80.411080568198628
 20
29.89687264235069
 30
0.0
 40
0.2738386060312499
 50
270.0
 51
0.0
  0
ARC
  5
160A9
  8
5-3図補助
 10
79.3221074338676
 20
29.349195430288219
 30
0.0
 40
0.2738386060312499
 50
90.0
 51
180.0
  0
ARC
  5
160AA
  8
5-3図補助
 10
79.3221074338676
 20
28.707461862793391
 30
0.0
 40
0.2738386060312499
 50
180.0
 51
270.0
  0
ARC
  5
160AB
  8
5-3図補助
 10
80.411080568198628
 20
28.15978465073092
 30
0.0
 40
0.2738386060312499
 50
0.0
 51
90.0
  0
ARC
  5
160AC
  8
5-3図補助
 10
82.29783550537357
 20
28.15978465073092
 30
0.0
 40
0.2738386060312499
 50
90.0
 51
180.0
  0
ARC
  5
160AD
  8
5-3図補助
 10
82.345304155438527
 20
28.707461862793391
 30
0.0
 40
0.2738386060312499
 50
270.0
 51
0.0
  0
ARC
  5
160AE
  8
5-3図補助
 10
82.345304155438527
 20
29.349195430288219
 30
0.0
 40
0.2738386060312499
 50
0.0
 51
90.0
  0
ARC
  5
160AF
  8
5-3図補助
 10
80.958757780261095
 20
31.802355209748981
 30
0.0
 40
0.2738386060312499
 50
90.0
 51
180.0
  0
ARC
  5
160B0
  8
5-3図補助
 10
81.750158293311074
 20
31.802355209748981
 30
0.0
 40
0.2738386060312499
 50
0.0
 51
90.0
  0
ARC
  5
160B1
  8
5-3図補助
 10
82.29783550537357
 20
25.03758088815632
 30
0.0
 40
0.2738386060312499
 50
90.0
 51
180.0
  0
ARC
  5
160B2
  8
5-3図補助
 10
82.494090156296494
 20
26.18462283501102
 30
0.0
 40
0.2738386060312499
 50
0.0
 51
37.589081431230611
  0
ARC
  5
160B3
  8
5-3図補助
 10
79.595910633401019
 20
22.834745812363419
 30
0.0
 40
0.2738386060312499
 50
270.0
 51
317.99170694289472
  0
ARC
  5
160B4
  8
5-3図補助
 10
79.682626178746915
 20
25.690022396106681
 30
0.0
 40
0.2738386060312499
 50
287.09080786876427
 51
330.23681378790832
  0
ARC
  5
160B5
  8
5-3図補助
 10
80.958757780261095
 20
21.422320371768389
 30
0.0
 40
0.2738386060312499
 50
180.0
 51
270.0
  0
ARC
  5
160B6
  8
5-3図補助
 10
81.750158293311074
 20
21.422320371768389
 30
0.0
 40
0.2738386060312499
 50
270.0
 51
0.0
  0
ARC
  5
160B7
  8
5-3図補助
 10
79.173320813444235
 20
24.960449141629429
 30
0.0
 40
0.2738386060312499
 50
107.0908078687643
 51
180.0
  0
ARC
  5
160B8
  8
5-3図補助
 10
90.396336022744109
 20
22.82539603191983
 30
0.0
 40
1.825590706874999
 50
201.05173485735199
 51
270.0
  0
POLYLINE
  5
160B9
  8
5-3図補助
 66
     1
 10
0.0
 20
0.0
 30
0.0
  0
VERTEX
  5
1D33D
  8
5-3図補助
 10
85.966837074250435
 20
23.87930674134045
 30
0.0
 42
-0.0358915590161259
  0
VERTEX
  5
1D33E
  8
5-3図補助
 10
85.903605822735727
 20
23.317591349062781
 30
0.0
 42
-0.0590194639994155
  0
VERTEX
  5
1D33F
  8
5-3図補助
 10
85.801220838696295
 20
22.988649456646751
 30
0.0
 42
-0.0152133774917191
  0
VERTEX
  5
1D340
  8
5-3図補助
 10
85.501315586136585
 20
22.367920879381039
 30
0.0
 42
-0.0377611947811743
  0
VERTEX
  5
1D341
  8
5-3図補助
 10
85.354553687488675
 20
22.131731888198619
 30
0.0
 42
-0.0238884920120576
  0
VERTEX
  5
1D342
  8
5-3図補助
 10
85.226795344198564
 20
21.973499491435369
 30
0.0
 42
-0.0113665576763389
  0
VERTEX
  5
1D343
  8
5-3図補助
 10
84.935662623340974
 20
21.660828734891901
 30
0.0
 42
-0.0607702004455747
  0
VERTEX
  5
1D344
  8
5-3図補助
 10
84.679898468553489
 20
21.455297422859889
 30
0.0
 42
-0.0406579399886781
  0
VERTEX
  5
1D345
  8
5-3図補助
 10
84.244493109112256
 20
21.231783353919148
 30
0.0
  0
SEQEND
  5
1D346
  8
5-3図補助
  0
POLYLINE
  5
160BA
  8
5-3図補助
 66
     1
 10
0.0
 20
0.0
 30
0.0
  0
VERTEX
  5
1D347
  8
5-3図補助
 10
88.364305818544182
 20
23.598892348666329
 30
0.0
 42
-0.0030692598290352
  0
VERTEX
  5
1D348
  8
5-3図補助
 10
88.416331345554255
 20
23.275822515381169
 30
0.0
 42
-0.0044896254287246
  0
VERTEX
  5
1D349
  8
5-3図補助
 10
88.448555249426846
 20
23.05444624737029
 30
0.0
 42
-0.0015206310385347
  0
VERTEX
  5
1D34A
  8
5-3図補助
 10
88.475075106609339
 20
22.855508625250561
 30
0.0
 42
0.0016471458875677
  0
VERTEX
  5
1D34B
  8
5-3図補助
 10
88.499604492355076
 20
22.671857236065211
 30
0.0
 42
0.057761445179942
  0
VERTEX
  5
1D34C
  8
5-3図補助
 10
88.549592680587054
 20
22.47727969905193
 30
0.0
 42
0.0341294805298814
  0
VERTEX
  5
1D34D
  8
5-3図補助
 10
88.692591702387091
 20
22.169624181441261
 30
0.0
  0
SEQEND
  5
1D34E
  8
5-3図補助
  0
LINE
  5
160BB
  8
5-3図補助
 10
99.695461697201409
 20
24.20772639927613
 30
0.0
 11
99.169216435348318
 21
27.822986915664409
 31
0.0
  0
LINE
  5
160BC
  8
5-3図補助
 10
98.302425517062858
 20
32.150532036126179
 30
0.0
 11
97.051425116425136
 21
32.150532036126179
 31
0.0
  0
LINE
  5
160BD
  8
5-3図補助
 10
97.051425116425136
 20
32.150532036126179
 30
0.0
 11
97.2918515370541
 21
29.851010386778022
 31
0.0
  0
LINE
  5
160BE
  8
5-3図補助
 10
98.092930220256264
 20
22.189216104602359
 30
0.0
 11
98.390502841537597
 21
21.668848935169681
 31
0.0
  0
LINE
  5
160BF
  8
5-3図補助
 10
98.390502841537597
 20
21.668848935169681
 30
0.0
 11
98.985648703664694
 21
21.445834274131428
 31
0.0
  0
LINE
  5
160C0
  8
5-3図補助
 10
98.985648703664694
 20
21.445834274131428
 30
0.0
 11
102.33334301644619
 21
21.445834274131428
 31
0.0
  0
LINE
  5
160C1
  8
5-3図補助
 10
102.33334301644619
 20
21.445834274131428
 30
0.0
 11
102.33334301644619
 21
23.973332646927378
 31
0.0
  0
LINE
  5
160C2
  8
5-3図補助
 10
102.33334301644619
 20
23.973332646927378
 30
0.0
 11
99.966444511548204
 21
23.973332646927549
 31
0.0
  0
LINE
  5
160C3
  8
5-3図補助
 10
92.662225699812794
 20
24.04767049428429
 30
0.0
 11
93.390891513589992
 21
24.14264359997977
 31
0.0
  0
LINE
  5
160C4
  8
5-3図補助
 10
95.379323007931404
 20
24.507228583222311
 30
0.0
 11
95.637954390883849
 21
24.568038036705872
 31
0.0
  0
LINE
  5
160C5
  8
5-3図補助
 10
95.637954390883849
 20
24.568038036705872
 30
0.0
 11
96.035500803079714
 21
24.820835074265879
 31
0.0
  0
LINE
  5
160C6
  8
5-3図補助
 10
96.45627925429838
 20
24.58975875776073
 30
0.0
 11
96.45627925429838
 21
24.04767049428429
 31
0.0
  0
LINE
  5
160C7
  8
5-3図補助
 10
96.45627925429838
 20
24.04767049428429
 30
0.0
 11
95.954102753058919
 21
23.044060320741401
 31
0.0
  0
LINE
  5
160C8
  8
5-3図補助
 10
95.246588887247015
 20
22.287134302657272
 30
0.0
 11
94.117147991120675
 21
21.62324881057841
 31
0.0
  0
LINE
  5
160C9
  8
5-3図補助
 10
91.397541594694218
 20
21.371496426774709
 30
0.0
 11
93.192045639020449
 21
21.371496426774709
 31
0.0
  0
LINE
  5
160CA
  8
5-3図補助
 10
92.662225699812794
 20
24.04767049428429
 30
0.0
 11
91.671380200725295
 21
24.04767049428429
 31
0.0
  0
LINE
  5
160CB
  8
5-3図補助
 10
91.397541594694218
 20
23.773831888253049
 30
0.0
 11
91.397541594694218
 21
21.371496426774709
 31
0.0
  0
LINE
  5
160CC
  8
5-3図補助
 10
95.042808528756765
 20
24.773798118388779
 30
0.0
 11
95.042808528756765
 21
25.632286650924211
 31
0.0
  0
LINE
  5
160CD
  8
5-3図補助
 10
93.629337803214781
 20
25.632286650924211
 30
0.0
 11
93.629337803214781
 21
24.414185431181892
 31
0.0
  0
LINE
  5
160CE
  8
5-3図補助
 10
92.415312063710687
 20
25.906125256955441
 30
0.0
 11
93.355499197183718
 21
25.906125256955441
 31
0.0
  0
LINE
  5
160CF
  8
5-3図補助
 10
96.307493253440072
 20
26.179963862986671
 30
0.0
 11
96.307493253440072
 21
26.970373498184379
 31
0.0
  0
LINE
  5
160D0
  8
5-3図補助
 10
96.033654647408696
 20
27.24421210421545
 30
0.0
 11
92.415312063710687
 21
27.24421210421545
 31
0.0
  0
LINE
  5
160D1
  8
5-3図補助
 10
92.141473457679595
 20
26.970373498184379
 30
0.0
 11
92.141473457679595
 21
26.179963862986671
 31
0.0
  0
LINE
  5
160D2
  8
5-3図補助
 10
91.522593580302583
 20
28.136270375378128
 30
0.0
 11
97.224436013649012
 21
28.136270375378128
 31
0.0
  0
LINE
  5
160D3
  8
5-3図補助
 10
101.7381971543184
 20
28.410108981409529
 30
0.0
 11
101.7381971543184
 21
29.274857209942262
 31
0.0
  0
LINE
  5
160D4
  8
5-3図補助
 10
101.46435854828771
 20
29.548695815973499
 30
0.0
 11
99.154882402117806
 21
29.548695815973499
 31
0.0
  0
LINE
  5
160D5
  8
5-3図補助
 10
91.248754974271165
 20
29.274857209942262
 30
0.0
 11
91.248754974271165
 21
28.410108981409529
 31
0.0
  0
LINE
  5
160D6
  8
5-3図補助
 10
100.2265987935336
 20
30.366415866790209
 30
0.0
 11
101.1667859270063
 21
30.366415866790209
 31
0.0
  0
LINE
  5
160D7
  8
5-3図補助
 10
101.44062453303739
 20
30.64025447282145
 30
0.0
 11
101.44062453303739
 21
31.876693430094772
 31
0.0
  0
LINE
  5
160D8
  8
5-3図補助
 10
101.1667859270063
 20
32.150532036126179
 30
0.0
 11
100.2265987935336
 21
32.150532036126179
 31
0.0
  0
LINE
  5
160D9
  8
5-3図補助
 10
99.952760187502264
 20
31.876693430094772
 30
0.0
 11
99.952760187502264
 21
30.64025447282145
 31
0.0
  0
LINE
  5
160DA
  8
5-3図補助
 10
95.316647134787786
 20
25.906125256955441
 30
0.0
 11
96.033654647408696
 21
25.906125256955441
 31
0.0
  0
LINE
  5
160DB
  8
5-3図補助
 10
97.019497536562994
 20
29.548695815973499
 30
0.0
 11
91.522593580302583
 21
29.548695815973499
 31
0.0
  0
LINE
  5
160DC
  8
5-3図補助
 10
99.440199249695084
 20
28.136270375378128
 30
0.0
 11
101.46435854828771
 21
28.136270375378128
 31
0.0
  0
LINE
  5
160DD
  8
5-3図補助
 10
98.883899587771353
 20
29.78308956832225
 30
0.0
 11
98.573408331409638
 21
31.916138283777592
 31
0.0
  0
LINE
  5
160DE
  8
5-3図補助
 10
97.496790014139407
 20
27.89090773412001
 30
0.0
 11
98.092930220256264
 21
22.189216104602359
 31
0.0
  0
ARC
  5
160DF
  8
5-3図補助
 10
101.1667859270063
 20
31.876693430094772
 30
0.0
 40
0.2738386060312499
 50
0.0
 51
90.0
  0
ARC
  5
160E0
  8
5-3図補助
 10
100.2265987935336
 20
31.876693430094772
 30
0.0
 40
0.2738386060312499
 50
90.0
 51
180.0
  0
ARC
  5
160E1
  8
5-3図補助
 10
100.2265987935336
 20
30.64025447282145
 30
0.0
 40
0.2738386060312499
 50
180.0
 51
270.0
  0
ARC
  5
160E2
  8
5-3図補助
 10
101.1667859270063
 20
30.64025447282145
 30
0.0
 40
0.2738386060312499
 50
270.0
 51
0.0
  0
ARC
  5
160E3
  8
5-3図補助
 10
98.302425517062858
 20
31.876693430094772
 30
0.0
 40
0.2738386060312499
 50
8.2819328958121972
 51
90.0
  0
ARC
  5
160E4
  8
5-3図補助
 10
99.154882402117806
 20
29.8225344220049
 30
0.0
 40
0.2738386060312499
 50
188.28193289580889
 51
270.0
  0
ARC
  5
160E5
  8
5-3図補助
 10
101.46435854828771
 20
29.274857209942262
 30
0.0
 40
0.2738386060312499
 50
0.0
 51
90.0
  0
ARC
  5
160E6
  8
5-3図補助
 10
101.46435854828771
 20
28.410108981409529
 30
0.0
 40
0.2738386060312499
 50
270.0
 51
0.0
  0
ARC
  5
160E7
  8
5-3図補助
 10
99.440199249695084
 20
27.862431769347062
 30
0.0
 40
0.2738386060312499
 50
90.0
 51
188.28193289580889
  0
ARC
  5
160E8
  8
5-3図補助
 10
99.966444511548204
 20
24.24717125295879
 30
0.0
 40
0.2738386060312499
 50
188.28193289580889
 51
270.0
  0
ARC
  5
160E9
  8
5-3図補助
 10
97.224436013649012
 20
27.862431769347062
 30
0.0
 40
0.2738386060312499
 50
5.9688715858571442
 51
90.0
  0
ARC
  5
160EA
  8
5-3図補助
 10
97.019497536562994
 20
29.8225344220049
 30
0.0
 40
0.2738386060312499
 50
270.0
 51
5.9688715858571442
  0
ARC
  5
160EB
  8
5-3図補助
 10
93.355499197183718
 20
25.632286650924211
 30
0.0
 40
0.2738386060312499
 50
0.0
 51
90.0
  0
ARC
  5
160EC
  8
5-3図補助
 10
93.355499197183718
 20
24.414185431181892
 30
0.0
 40
0.2738386060312499
 50
277.4259756016753
 51
0.0
  0
ARC
  5
160ED
  8
5-3図補助
 10
95.316647134787786
 20
25.632286650924211
 30
0.0
 40
0.2738386060312499
 50
90.0
 51
180.0
  0
ARC
  5
160EE
  8
5-3図補助
 10
95.316647134787786
 20
24.773798118388779
 30
0.0
 40
0.2738386060312499
 50
180.0
 51
283.23107565297641
  0
ARC
  5
160EF
  8
5-3図補助
 10
92.415312063710687
 20
26.179963862986671
 30
0.0
 40
0.2738386060312499
 50
180.0
 51
270.0
  0
ARC
  5
160F0
  8
5-3図補助
 10
92.415312063710687
 20
26.970373498184379
 30
0.0
 40
0.2738386060312499
 50
90.0
 51
180.0
  0
ARC
  5
160F1
  8
5-3図補助
 10
96.033654647408696
 20
26.970373498184379
 30
0.0
 40
0.2738386060312499
 50
0.0
 51
90.0
  0
ARC
  5
160F2
  8
5-3図補助
 10
96.033654647408696
 20
26.179963862986671
 30
0.0
 40
0.2738386060312499
 50
270.0
 51
0.0
  0
ARC
  5
160F3
  8
5-3図補助
 10
91.522593580302583
 20
28.410108981409529
 30
0.0
 40
0.2738386060312499
 50
180.0
 51
270.0
  0
ARC
  5
160F4
  8
5-3図補助
 10
91.522593580302583
 20
29.274857209942262
 30
0.0
 40
0.2738386060312499
 50
90.0
 51
180.0
  0
ARC
  5
160F5
  8
5-3図補助
 10
89.561445023133757
 20
29.423533650634361
 30
0.0
 40
0.2738386060312499
 50
0.0
 51
90.0
  0
ARC
  5
160F6
  8
5-3図補助
 10
89.561445023133757
 20
28.781799710150288
 30
0.0
 40
0.2738386060312499
 50
270.0
 51
0.0
  0
ARC
  5
160F7
  8
5-3図補助
 10
89.933411264408988
 20
26.402978151035679
 30
0.0
 40
0.2738386060312499
 50
270.0
 51
0.0
  0
ARC
  5
160F8
  8
5-3図補助
 10
83.785699850909424
 20
26.32863993068954
 30
0.0
 40
0.2738386060312499
 50
180.0
 51
270.0
  0
ARC
  5
160F9
  8
5-3図補助
 10
96.182440648266947
 20
24.58975875776073
 30
0.0
 40
0.2738386060312499
 50
0.0
 51
122.4520009604848
  0
ARC
  5
160FA
  8
5-3図補助
 10
91.671380200725295
 20
23.773831888253049
 30
0.0
 40
0.2738386060312499
 50
90.0
 51
180.0
  0
ARC
  5
160FB
  8
5-3図補助
 10
94.321486535146775
 20
23.860972625728511
 30
0.0
 40
1.825590706874999
 50
300.44701734959961
 51
333.4179881888648
  0
ARC
  5
160FC
  8
5-3図補助
 10
93.192045639020449
 20
23.19708713364982
 30
0.0
 40
1.825590706874999
 50
270.0
 51
300.44701734959961
  0
LINE
  5
160FD
  8
5-3図補助
 10
112.5014785599621
 20
28.953990426194839
 30
0.0
 11
113.8136313151454
 21
28.953990426194839
 31
0.0
  0
LINE
  5
160FE
  8
5-3図補助
 10
114.0874699211768
 20
29.227829032226069
 30
0.0
 11
114.0874699211768
 21
30.440753714147291
 31
0.0
  0
LINE
  5
160FF
  8
5-3図補助
 10
114.0874699211768
 20
30.440753714147291
 30
0.0
 11
112.9840340413714
 21
30.440753714147291
 31
0.0
  0
LINE
  5
16100
  8
5-3図補助
 10
107.173570499961
 20
28.953990426194839
 30
0.0
 11
110.815389709427
 21
28.953990426194839
 31
0.0
  0
LINE
  5
16101
  8
5-3図補助
 10
104.9709525339839
 20
30.440753714147291
 30
0.0
 11
103.0028818790021
 21
30.440753714147291
 31
0.0
  0
LINE
  5
16102
  8
5-3図補助
 10
103.0028818790021
 20
30.440753714147291
 30
0.0
 11
103.0028818790021
 21
29.227829032226069
 31
0.0
  0
LINE
  5
16103
  8
5-3図補助
 10
103.2767204850331
 20
28.953990426194839
 30
0.0
 11
104.9608394814916
 21
28.953990426194839
 31
0.0
  0
LINE
  5
16104
  8
5-3図補助
 10
112.4773393481706
 20
25.757448816263508
 30
0.0
 11
113.7392383147162
 21
25.757448816263508
 31
0.0
  0
LINE
  5
16105
  8
5-3図補助
 10
114.01307692074759
 20
26.03128742229492
 30
0.0
 11
114.01307692074759
 21
26.747359210135549
 31
0.0
  0
LINE
  5
16106
  8
5-3図補助
 10
113.7392383147162
 20
27.02119781616679
 30
0.0
 11
103.79747272716671
 21
27.02119781616679
 31
0.0
  0
LINE
  5
16107
  8
5-3図補助
 10
103.5236341211353
 20
26.747359210135549
 30
0.0
 11
103.5236341211353
 21
26.03128742229492
 31
0.0
  0
LINE
  5
16108
  8
5-3図補助
 10
103.79747272716671
 20
25.757448816263508
 30
0.0
 11
104.7656311061692
 21
25.757448816263508
 31
0.0
  0
LINE
  5
16109
  8
5-3図補助
 10
106.9457576023847
 20
25.601413614775559
 30
0.0
 11
106.4628173720198
 21
24.58798894555073
 31
0.0
  0
LINE
  5
1610A
  8
5-3図補助
 10
106.7100216196195
 20
24.196346934976209
 30
0.0
 11
110.8230249749697
 21
24.196346934976379
 31
0.0
  0
LINE
  5
1610B
  8
5-3図補助
 10
111.08631263988489
 20
24.54546626667328
 30
0.0
 11
110.7965484212249
 21
25.558890935897939
 31
0.0
  0
LINE
  5
1610C
  8
5-3図補助
 10
105.0040960218596
 20
25.348991986584931
 30
0.0
 11
103.8338523434029
 21
23.276003259212551
 31
0.0
  0
LINE
  5
1610D
  8
5-3図補助
 10
103.5980277411292
 20
22.378548434896079
 30
0.0
 11
103.5980277411292
 21
22.017025761546869
 31
0.0
  0
LINE
  5
1610E
  8
5-3図補助
 10
103.8718663471606
 20
21.743187155515461
 30
0.0
 11
113.14409245258911
 21
21.743187155515461
 31
0.0
  0
LINE
  5
1610F
  8
5-3図補助
 10
113.4179310586205
 20
22.017025761546869
 30
0.0
 11
113.4179310586205
 21
22.510790637351668
 31
0.0
  0
LINE
  5
16110
  8
5-3図補助
 10
113.2328902482798
 20
23.31165109086955
 30
0.0
 11
112.23125686369031
 21
25.363481142204609
 31
0.0
  0
LINE
  5
16111
  8
5-3図補助
 10
108.8267116529384
 20
30.886783036223068
 30
0.0
 11
109.14384361772299
 21
30.886783036223068
 31
0.0
  0
LINE
  5
16112
  8
5-3図補助
 10
109.45847849406729
 20
30.760996511618171
 30
0.0
 11
110.9986605454019
 21
29.295241390623708
 31
0.0
  0
LINE
  5
16113
  8
5-3図補助
 10
106.10484963396181
 20
30.835589796465701
 30
0.0
 11
107.68931674111541
 21
32.091306623778529
 31
0.0
  0
LINE
  5
16114
  8
5-3図補助
 10
107.85940130611181
 20
32.150532036126179
 30
0.0
 11
109.95166113839311
 21
32.150532036126179
 31
0.0
  0
LINE
  5
16115
  8
5-3図補助
 10
110.1513674178286
 20
32.064056671173063
 30
0.0
 11
111.18613485009961
 21
30.96112125656904
 31
0.0
  0
LINE
  5
16116
  8
5-3図補助
 10
111.18613485009961
 20
30.96112125656904
 30
0.0
 11
112.3813466128873
 21
30.543106395508708
 31
0.0
  0
LINE
  5
16117
  8
5-3図補助
 10
107.1929618499841
 20
25.757448816263508
 30
0.0
 11
110.53326075631
 21
25.757448816263508
 31
0.0
  0
LINE
  5
16118
  8
5-3図補助
 10
105.2346780875226
 20
28.680151820163609
 30
0.0
 11
105.2346780875226
 21
28.112756473014731
 31
0.0
  0
LINE
  5
16119
  8
5-3図補助
 10
105.5085166935537
 20
27.838917866983159
 30
0.0
 11
111.9538013479
 21
27.838917866983159
 31
0.0
  0
LINE
  5
1611A
  8
5-3図補助
 10
112.22763995393071
 20
28.112756473014731
 30
0.0
 11
112.22763995393071
 21
28.680151820163609
 31
0.0
  0
ARC
  5
1611B
  8
5-3図補助
 10
104.9608394814916
 20
28.680151820163609
 30
0.0
 40
0.2738386060312499
 50
0.0
 51
90.0
  0
ARC
  5
1611C
  8
5-3図補助
 10
105.5085166935537
 20
28.112756473014731
 30
0.0
 40
0.2738386060312499
 50
180.0
 51
270.0
  0
ARC
  5
1611D
  8
5-3図補助
 10
111.9538013479
 20
28.112756473014731
 30
0.0
 40
0.2738386060312499
 50
270.0
 51
0.0
  0
ARC
  5
1611E
  8
5-3図補助
 10
112.5014785599621
 20
28.680151820163609
 30
0.0
 40
0.2738386060312499
 50
90.0
 51
180.0
  0
ARC
  5
1611F
  8
5-3図補助
 10
113.8136313151454
 20
29.227829032226069
 30
0.0
 40
0.2738386060312499
 50
270.0
 51
0.0
  0
ARC
  5
16120
  8
5-3図補助
 10
103.2767204850331
 20
29.227829032226069
 30
0.0
 40
0.2738386060312499
 50
180.0
 51
270.0
  0
ARC
  5
16121
  8
5-3図補助
 10
104.7656311061692
 20
25.483610210232111
 30
0.0
 40
0.2738386060312499
 50
330.55440135877791
 51
90.0
  0
ARC
  5
16122
  8
5-3図補助
 10
107.1929618499841
 20
25.483610210232111
 30
0.0
 40
0.2738386060312499
 50
90.0
 51
154.52020184160591
  0
ARC
  5
16123
  8
5-3図補助
 10
110.53326075631
 20
25.483610210232111
 30
0.0
 40
0.2738386060312499
 50
15.95659739516395
 51
90.0
  0
ARC
  5
16124
  8
5-3図補助
 10
112.4773393481706
 20
25.483610210232111
 30
0.0
 40
0.2738386060312499
 50
90.0
 51
206.02005073885769
  0
ARC
  5
16125
  8
5-3図補助
 10
113.7392383147162
 20
26.03128742229492
 30
0.0
 40
0.2738386060312499
 50
270.0
 51
0.0
  0
ARC
  5
16126
  8
5-3図補助
 10
103.79747272716671
 20
26.03128742229492
 30
0.0
 40
0.2738386060312499
 50
180.0
 51
270.0
  0
ARC
  5
16127
  8
5-3図補助
 10
103.79747272716671
 20
26.747359210135549
 30
0.0
 40
0.2738386060312499
 50
90.0
 51
180.0
  0
ARC
  5
16128
  8
5-3図補助
 10
113.7392383147162
 20
26.747359210135549
 30
0.0
 40
0.2738386060312499
 50
0.0
 51
90.0
  0
ARC
  5
16129
  8
5-3図補助
 10
113.14409245258911
 20
22.017025761546869
 30
0.0
 40
0.2738386060312499
 50
270.0
 51
0.0
  0
ARC
  5
1612A
  8
5-3図補助
 10
103.8718663471606
 20
22.017025761546869
 30
0.0
 40
0.2738386060312499
 50
180.0
 51
270.0
  0
ARC
  5
1612B
  8
5-3図補助
 10
106.7100216196195
 20
24.47018554100762
 30
0.0
 40
0.2738386060312499
 50
154.52020184160591
 51
270.0
  0
ARC
  5
1612C
  8
5-3図補助
 10
110.8230249749697
 20
24.47018554100762
 30
0.0
 40
0.2738386060312499
 50
270.0
 51
15.95659739516395
  0
ARC
  5
1612D
  8
5-3図補助
 10
111.59234035174541
 20
22.510790637351668
 30
0.0
 40
1.825590706874999
 50
0.0
 51
26.020050738857741
  0
ARC
  5
1612E
  8
5-3図補助
 10
105.42361844800389
 20
22.378548434896079
 30
0.0
 40
1.825590706874999
 50
150.5544013587778
 51
180.0
  0
ARC
  5
1612F
  8
5-3図補助
 10
104.9709525339839
 20
32.266344421022403
 30
0.0
 40
1.825590706874999
 50
270.0
 51
308.39741638428171
  0
ARC
  5
16130
  8
5-3図補助
 10
112.9840340413714
 20
32.266344421022403
 30
0.0
 40
1.825590706874999
 50
250.72316200619551
 51
270.0
  0
ARC
  5
16131
  8
5-3図補助
 10
109.95166113839311
 20
31.876693430094772
 30
0.0
 40
0.2738386060312499
 50
43.173546608553778
 51
90.0
  0
ARC
  5
16132
  8
5-3図補助
 10
107.85940130611181
 20
31.876693430094772
 30
0.0
 40
0.2738386060312499
 50
90.0
 51
128.39741638428171
  0
LINE
  5
16133
  8
5-3図補助
 10
106.7660453791795
 20
29.379619470806141
 30
0.0
 11
108.5432373779438
 21
30.788074015643382
 31
0.0
  0
LINE
  5
16134
  8
5-3図補助
 10
110.92697251918339
 20
28.98865856069969
 30
0.0
 11
110.815389709427
 21
28.953990426194839
 31
0.0
  0
LINE
  5
16135
  8
5-3図補助
 10
106.8252691648579
 20
29.0622056392722
 30
0.0
 11
107.173570499961
 21
28.953990426194839
 31
0.0
  0
ARC
  5
16136
  8
5-3図補助
 10
108.8267116529384
 20
30.430385359504289
 30
0.0
 40
0.45639767671875
 50
90.0
 51
128.39741638428171
  0
ARC
  5
16137
  8
5-3図補助
 10
109.14384361772299
 20
30.430385359504289
 30
0.0
 40
0.45639767671875
 50
46.418352293405249
 51
90.0
  0
ARC
  5
16138
  8
5-3図補助
 10
106.87943508917689
 20
29.236544008350641
 30
0.0
 40
0.1825590706875
 50
128.39741638428171
 51
252.7402821741008
  0
ARC
  5
16139
  8
5-3図補助
 10
110.8728065948644
 20
29.162996929778298
 30
0.0
 40
0.1825590706875
 50
287.2597178258992
 51
46.418352293405249
  0
LINE
  5
1613A
  8
5-3図補助
 10
118.92302857949311
 20
27.46722676525351
 30
0.0
 11
118.75206029523881
 21
26.783859388369269
 31
0.0
  0
LINE
  5
1613B
  8
5-3図補助
 10
123.68419423738101
 20
24.618861981699549
 30
0.0
 11
123.68419423738101
 21
27.56507926095227
 31
0.0
  0
LINE
  5
1613C
  8
5-3図補助
 10
123.9580328434117
 20
27.838917866983159
 30
0.0
 11
125.1957925981658
 21
27.838917866983159
 31
0.0
  0
LINE
  5
1613D
  8
5-3図補助
 10
125.4696312041972
 20
28.112756473014731
 30
0.0
 11
125.4696312041972
 21
29.12618076925051
 31
0.0
  0
LINE
  5
1613E
  8
5-3図補助
 10
125.1957925981658
 20
29.40001937528157
 30
0.0
 11
123.9580328434117
 21
29.40001937528157
 31
0.0
  0
LINE
  5
1613F
  8
5-3図補助
 10
122.27072289227431
 20
27.56507926095227
 30
0.0
 11
122.27072289227431
 21
24.618861981699549
 31
0.0
  0
LINE
  5
16140
  8
5-3図補助
 10
116.49178676537031
 20
30.366415866790209
 30
0.0
 11
115.402813631039
 21
30.366415866790209
 31
0.0
  0
LINE
  5
16141
  8
5-3図補助
 10
115.1289750250079
 20
30.092577260758642
 30
0.0
 11
115.1289750250079
 21
29.153490811880278
 31
0.0
  0
LINE
  5
16142
  8
5-3図補助
 10
115.402813631039
 20
28.879652205848881
 30
0.0
 11
117.79202722374291
 21
28.879652205848881
 31
0.0
  0
LINE
  5
16143
  8
5-3図補助
 10
118.92302857949311
 20
27.46722676525351
 30
0.0
 11
119.0718151999158
 21
28.953990426194839
 31
0.0
  0
LINE
  5
16144
  8
5-3図補助
 10
117.9321007567482
 20
25.051491452041908
 30
0.0
 11
118.2670616783266
 21
25.523132552661799
 31
0.0
  0
LINE
  5
16145
  8
5-3図補助
 10
118.8902458091229
 20
26.475033823019739
 30
0.0
 11
119.79655672313881
 21
25.998381267928739
 31
0.0
  0
LINE
  5
16146
  8
5-3図補助
 10
119.86968969646701
 20
25.56960974715647
 30
0.0
 11
119.1462082003453
 21
24.791052324755039
 31
0.0
  0
LINE
  5
16147
  8
5-3図補助
 10
119.1462082003453
 20
24.791052324755039
 30
0.0
 11
118.2670616783266
 21
25.523132552661799
 31
0.0
  0
LINE
  5
16148
  8
5-3図補助
 10
114.8868124671617
 20
25.51379219403875
 30
0.0
 11
116.0960865088451
 21
25.83178703660948
 31
0.0
  0
LINE
  5
16149
  8
5-3図補助
 10
116.0960865088451
 20
25.83178703660948
 30
0.0
 11
117.30689183822319
 21
26.167872916315918
 31
0.0
  0
LINE
  5
1614A
  8
5-3図補助
 10
117.4863973765744
 20
26.32634630436635
 30
0.0
 11
117.8071304752329
 21
27.095536036512922
 31
0.0
  0
LINE
  5
1614B
  8
5-3図補助
 10
117.8071304752329
 20
27.095536036512922
 30
0.0
 11
118.0618103605709
 21
28.558859992538281
 31
0.0
  0
LINE
  5
1614C
  8
5-3図補助
 10
114.6826157833038
 20
25.248957179682659
 30
0.0
 11
114.6826157833038
 21
22.973927692956309
 31
0.0
  0
LINE
  5
1614D
  8
5-3図補助
 10
115.01379089081141
 20
22.706158934973612
 30
0.0
 11
115.7241208871353
 21
22.858259714727151
 31
0.0
  0
LINE
  5
1614E
  8
5-3図補助
 10
115.7241208871353
 20
22.858259714727151
 30
0.0
 11
116.6912323709726
 21
23.304289036802761
 31
0.0
  0
LINE
  5
1614F
  8
5-3図補助
 10
116.6912323709726
 20
23.304289036802761
 30
0.0
 11
116.6912323709726
 21
21.34798215142191
 31
0.0
  0
LINE
  5
16150
  8
5-3図補助
 10
116.96507097700361
 20
21.07414354539085
 30
0.0
 11
117.6076854891953
 21
21.07414354539085
 31
0.0
  0
LINE
  5
16151
  8
5-3図補助
 10
117.88152409522669
 20
21.34798215142191
 30
0.0
 11
117.88152409522669
 21
24.892930150688102
 31
0.0
  0
LINE
  5
16152
  8
5-3図補助
 10
119.06437586516221
 20
28.879652205848881
 30
0.0
 11
119.0718151999158
 21
28.879652205848881
 31
0.0
  0
LINE
  5
16153
  8
5-3図補助
 10
119.0718151999158
 20
28.879652205848881
 30
0.0
 11
119.0718151999158
 21
30.092577260758642
 31
0.0
  0
LINE
  5
16154
  8
5-3図補助
 10
118.7979765938851
 20
30.366415866790209
 30
0.0
 11
118.2297557016873
 21
30.366415866790209
 31
0.0
  0
LINE
  5
16155
  8
5-3図補助
 10
117.95591709565591
 20
30.64025447282145
 30
0.0
 11
117.95591709565591
 21
31.876693430094772
 31
0.0
  0
LINE
  5
16156
  8
5-3図補助
 10
117.6820784896245
 20
32.150532036126513
 30
0.0
 11
117.0394639774331
 21
32.150532036126179
 31
0.0
  0
LINE
  5
16157
  8
5-3図補助
 10
116.7656253714017
 20
31.876693430094772
 30
0.0
 11
116.7656253714017
 21
30.64025447282145
 31
0.0
  0
LINE
  5
16158
  8
5-3図補助
 10
121.9968842862432
 20
24.345023375668308
 30
0.0
 11
119.2949948207683
 21
24.345023375668308
 31
0.0
  0
LINE
  5
16159
  8
5-3図補助
 10
119.2949948207683
 20
24.345023375668308
 30
0.0
 11
119.2949948207683
 21
22.284291780212261
 31
0.0
  0
ARC
  5
1615A
  8
5-3図補助
 10
120.2077901742059
 20
22.284291780212261
 30
0.0
 40
0.9127953534374999
 50
180.0
 51
270.0
  0
LINE
  5
1615B
  8
5-3図補助
 10
120.2077901742059
 20
21.371496426774709
 30
0.0
 11
125.7471269554494
 21
21.371496426774709
 31
0.0
  0
ARC
  5
1615C
  8
5-3図補助
 10
125.7471269554494
 20
22.284291780212261
 30
0.0
 40
0.9127953534374999
 50
270.0
 51
0.0
  0
LINE
  5
1615D
  8
5-3図補助
 10
126.659922308887
 20
22.284291780212261
 30
0.0
 11
126.659922308887
 21
24.345023375668308
 31
0.0
  0
LINE
  5
1615E
  8
5-3図補助
 10
126.659922308887
 20
24.345023375668308
 30
0.0
 11
123.9580328434117
 21
24.345023375668308
 31
0.0
  0
LINE
  5
1615F
  8
5-3図補助
 10
123.68419423738101
 20
29.67385798131297
 30
0.0
 11
123.68419423738101
 21
31.951031650441081
 31
0.0
  0
LINE
  5
16160
  8
5-3図補助
 10
123.4103556313493
 20
32.224870256472137
 30
0.0
 11
122.5445614983057
 21
32.224870256472137
 31
0.0
  0
LINE
  5
16161
  8
5-3図補助
 10
122.27072289227431
 20
31.951031650441081
 30
0.0
 11
122.27072289227431
 21
29.67385798131297
 31
0.0
  0
LINE
  5
16162
  8
5-3図補助
 10
121.9968842862432
 20
29.40001937528157
 30
0.0
 11
120.6103385306305
 21
29.40001937528157
 31
0.0
  0
LINE
  5
16163
  8
5-3図補助
 10
120.33649992459949
 20
29.12618076925051
 30
0.0
 11
120.33649992459949
 21
28.112756473014731
 31
0.0
  0
LINE
  5
16164
  8
5-3図補助
 10
120.6103385306305
 20
27.838917866983159
 30
0.0
 11
121.9968842862432
 21
27.838917866983159
 31
0.0
  0
ARC
  5
16165
  8
5-3図補助
 10
123.9580328434117
 20
24.618861981699549
 30
0.0
 40
0.2738386060312499
 50
180.0
 51
270.0
  0
ARC
  5
16166
  8
5-3図補助
 10
121.9968842862432
 20
24.618861981699549
 30
0.0
 40
0.2738386060312499
 50
270.0
 51
0.0
  0
ARC
  5
16167
  8
5-3図補助
 10
121.9968842862432
 20
27.56507926095227
 30
0.0
 40
0.2738386060312499
 50
0.0
 51
90.0
  0
ARC
  5
16168
  8
5-3図補助
 10
123.9580328434117
 20
27.56507926095227
 30
0.0
 40
0.2738386060312499
 50
90.0
 51
180.0
  0
ARC
  5
16169
  8
5-3図補助
 10
125.1957925981658
 20
28.112756473014731
 30
0.0
 40
0.2738386060312499
 50
270.0
 51
0.0
  0
ARC
  5
1616A
  8
5-3図補助
 10
120.6103385306305
 20
28.112756473014731
 30
0.0
 40
0.2738386060312499
 50
180.0
 51
270.0
  0
ARC
  5
1616B
  8
5-3図補助
 10
121.9968842862432
 20
29.67385798131297
 30
0.0
 40
0.2738386060312499
 50
270.0
 51
0.0
  0
ARC
  5
1616C
  8
5-3図補助
 10
123.9580328434117
 20
29.67385798131297
 30
0.0
 40
0.2738386060312499
 50
180.0
 51
270.0
  0
ARC
  5
1616D
  8
5-3図補助
 10
123.4103556313493
 20
31.951031650441081
 30
0.0
 40
0.2738386060312499
 50
0.0
 51
90.0
  0
ARC
  5
1616E
  8
5-3図補助
 10
122.5445614983057
 20
31.951031650441081
 30
0.0
 40
0.2738386060312499
 50
90.0
 51
180.0
  0
ARC
  5
1616F
  8
5-3図補助
 10
125.1957925981658
 20
29.12618076925051
 30
0.0
 40
0.2738386060312499
 50
0.0
 51
90.0
  0
ARC
  5
16170
  8
5-3図補助
 10
120.6103385306305
 20
29.12618076925051
 30
0.0
 40
0.2738386060312499
 50
90.0
 51
180.0
  0
ARC
  5
16171
  8
5-3図補助
 10
119.01771119591371
 20
26.717397511148668
 30
0.0
 40
0.2738386060312499
 50
165.95377941329869
 51
242.25894694098471
  0
ARC
  5
16172
  8
5-3図補助
 10
119.6690913363481
 20
25.75601757979998
 30
0.0
 40
0.2738386060312499
 50
317.09994893290178
 51
62.258946940984742
  0
ARC
  5
16173
  8
5-3図補助
 10
117.79202722374291
 20
28.605813599817811
 30
0.0
 40
0.2738386060312499
 50
350.12701928279807
 51
90.0
  0
ARC
  5
16174
  8
5-3図補助
 10
117.2336509794507
 20
26.431735302342101
 30
0.0
 40
0.2738386060312499
 50
285.51317457758819
 51
337.36507051244018
  0
ARC
  5
16175
  8
5-3図補助
 10
114.95645438933531
 20
25.248957179682659
 30
0.0
 40
0.2738386060312499
 50
104.73314164097251
 51
180.0
  0
ARC
  5
16176
  8
5-3図補助
 10
114.95645438933531
 20
22.973927692956309
 30
0.0
 40
0.2738386060312499
 50
180.0
 51
282.08605840759401
  0
ARC
  5
16177
  8
5-3図補助
 10
116.96507097700361
 20
21.34798215142191
 30
0.0
 40
0.2738386060312499
 50
180.0
 51
270.0
  0
ARC
  5
16178
  8
5-3図補助
 10
117.6076854891953
 20
21.34798215142191
 30
0.0
 40
0.2738386060312499
 50
270.0
 51
0.0
  0
ARC
  5
16179
  8
5-3図補助
 10
118.1553627012581
 20
24.892930150688102
 30
0.0
 40
0.2738386060312499
 50
144.61751624754129
 51
180.0
  0
ARC
  5
1617A
  8
5-3図補助
 10
115.402813631039
 20
29.153490811880278
 30
0.0
 40
0.2738386060312499
 50
180.0
 51
270.0
  0
ARC
  5
1617B
  8
5-3図補助
 10
115.402813631039
 20
30.092577260758642
 30
0.0
 40
0.2738386060312499
 50
90.0
 51
180.0
  0
ARC
  5
1617C
  8
5-3図補助
 10
116.49178676537031
 20
30.64025447282145
 30
0.0
 40
0.2738386060312499
 50
270.0
 51
0.0
  0
ARC
  5
1617D
  8
5-3図補助
 10
118.2297557016873
 20
30.64025447282145
 30
0.0
 40
0.2738386060312499
 50
180.0
 51
270.0
  0
ARC
  5
1617E
  8
5-3図補助
 10
118.7979765938851
 20
30.092577260758642
 30
0.0
 40
0.2738386060312499
 50
0.0
 51
90.0
  0
ARC
  5
1617F
  8
5-3図補助
 10
117.6820784896245
 20
31.876693430094772
 30
0.0
 40
0.2738386060312499
 50
0.0
 51
90.0
  0
ARC
  5
16180
  8
5-3図補助
 10
117.0394639774331
 20
31.876693430094772
 30
0.0
 40
0.2738386060312499
 50
90.0
 51
180.0
  0
LINE
  5
16181
  8
5-3図補助
 10
24.79597975198012
 20
22.514109949080439
 30
0.0
 11
25.711734520763251
 21
23.429864717863911
 31
0.0
  0
LINE
  5
16182
  8
5-3図補助
 10
23.436602760827579
 20
21.808898955479911
 30
0.0
 11
26.38687782443164
 21
24.759174019083979
 31
0.0
  0
LINE
  5
16183
  8
5-3図補助
 10
22.586223050485181
 20
21.612685242689189
 30
0.0
 11
26.540041052569471
 21
25.566503244773649
 31
0.0
  0
LINE
  5
16184
  8
5-3図補助
 10
21.874915437752431
 20
21.555543627508449
 30
0.0
 11
24.553209223626631
 21
24.233837413382641
 31
0.0
  0
LINE
  5
16185
  8
5-3図補助
 10
24.710697383608949
 20
24.391325573364991
 30
0.0
 11
26.468063583482628
 21
26.148691773238649
 31
0.0
  0
LINE
  5
16186
  8
5-3図補助
 10
21.265510045601129
 20
21.600304232908819
 30
0.0
 11
23.718713529211549
 21
24.05350771651959
 31
0.0
  0
LINE
  5
16187
  8
5-3図補助
 10
24.860687165006791
 20
25.195481352314818
 30
0.0
 11
26.220073932281728
 21
26.554868119589759
 31
0.0
  0
LINE
  5
16188
  8
5-3図補助
 10
20.70912179272548
 20
21.69808197758552
 30
0.0
 11
23.063848920665372
 21
24.05280910552543
 31
0.0
  0
LINE
  5
16189
  8
5-3図補助
 10
24.608419970757971
 20
25.597380155618019
 30
0.0
 11
25.903072774575911
 21
26.892032959435792
 31
0.0
  0
LINE
  5
1618A
  8
5-3図補助
 10
20.190553342236988
 20
21.833679524648709
 30
0.0
 11
22.40898431211988
 21
24.052110494531611
 31
0.0
  0
LINE
  5
1618B
  8
5-3図補助
 10
24.1727159521154
 20
25.81584213452745
 30
0.0
 11
25.537957361180151
 21
27.181083543592219
 31
0.0
  0
LINE
  5
1618C
  8
5-3図補助
 10
19.733066680367319
 20
22.030358860331059
 30
0.0
 11
21.7541197035737
 21
24.05141188353744
 31
0.0
  0
LINE
  5
1618D
  8
5-3図補助
 10
23.527377069629921
 20
25.82466924959331
 30
0.0
 11
25.124360877788511
 21
27.4216530577519
 31
0.0
  0
LINE
  5
1618E
  8
5-3図補助
 10
19.303023573252649
 20
22.254481750768399
 30
0.0
 11
21.099255095027871
 21
24.05071327254327
 31
0.0
  0
LINE
  5
1618F
  8
5-3図補助
 10
22.87424432387277
 20
25.825702501388509
 30
0.0
 11
24.671367130341221
 21
27.622825307856619
 31
0.0
  0
LINE
  5
16190
  8
5-3図補助
 10
18.905467265944502
 20
22.511091441012091
 30
0.0
 11
20.444390486481691
 21
24.05001466154928
 31
0.0
  0
LINE
  5
16191
  8
5-3図補助
 10
22.221111578115959
 20
25.826735753183041
 30
0.0
 11
24.19034536785707
 21
27.795969542924489
 31
0.0
  0
LINE
  5
16192
  8
5-3図補助
 10
18.55144498397296
 20
22.811235156592399
 30
0.0
 11
19.789525877935851
 21
24.04931605055511
 31
0.0
  0
LINE
  5
16193
  8
5-3図補助
 10
21.56797883235847
 20
25.827769004978251
 30
0.0
 11
23.677607251696848
 21
27.93739742431611
 31
0.0
  0
LINE
  5
16194
  8
5-3図補助
 10
18.214039521591658
 20
23.12799569176277
 30
0.0
 11
19.22340062520415
 21
24.137356795375432
 31
0.0
  0
LINE
  5
16195
  8
5-3図補助
 10
20.914846086602001
 20
25.828802256773109
 30
0.0
 11
23.120931676295658
 21
28.03488784646694
 31
0.0
  0
LINE
  5
16196
  8
5-3図補助
 10
17.931645405625449
 20
23.499767573348571
 30
0.0
 11
18.87442506960544
 21
24.44254723732822
 31
0.0
  0
LINE
  5
16197
  8
5-3図補助
 10
20.261713340845201
 20
25.829835508568319
 30
0.0
 11
22.533817530145839
 21
28.101939697869309
 31
0.0
  0
LINE
  5
16198
  8
5-3図補助
 10
17.673045140763431
 20
23.895333306038388
 30
0.0
 11
18.723747310591101
 21
24.946035475865891
 31
0.0
  0
LINE
  5
16199
  8
5-3図補助
 10
19.609299904513382
 20
25.83158806978852
 30
0.0
 11
21.914555940172271
 21
28.136844105447569
 31
0.0
  0
LINE
  5
1619A
  8
5-3図補助
 10
17.453314774191789
 20
24.32976893701893
 30
0.0
 11
21.232280672591081
 21
28.108734835417891
 31
0.0
  0
LINE
  5
1619B
  8
5-3図補助
 10
17.291334295572391
 20
24.821954455951211
 30
0.0
 11
20.4914450668605
 21
28.02206522723915
 31
0.0
  0
LINE
  5
1619C
  8
5-3図補助
 10
17.175928750266191
 20
25.36071490819668
 30
0.0
 11
19.654804186190191
 21
27.839590344121032
 31
0.0
  0
LINE
  5
1619D
  8
5-3図補助
 10
17.148070770769461
 20
25.98702292625179
 30
0.0
 11
18.584059180139569
 21
27.423011335622071
 31
0.0
  0
LINE
  5
1619E
  8
5-3図補助
 10
25.48301360561711
 20
19.93031381495771
 30
0.0
 11
28.417919655229792
 21
22.865219864570712
 31
0.0
  0
LINE
  5
1619F
  8
5-3図補助
 10
24.30300811528539
 20
19.404474322178
 30
0.0
 11
28.943759148009828
 21
24.045225354902438
 31
0.0
  0
LINE
  5
161A0
  8
5-3図補助
 10
23.397870002741708
 20
19.153502207185991
 30
0.0
 11
25.375033911512698
 21
21.130666115957151
 31
0.0
  0
LINE
  5
161A1
  8
5-3図補助
 10
27.132415291706732
 20
22.888047496151351
 30
0.0
 11
29.194731263001842
 21
24.950363467446461
 31
0.0
  0
LINE
  5
161A2
  8
5-3図補助
 10
22.622026106524821
 20
19.03182430852112
 30
0.0
 11
24.07693047394584
 21
20.48672867594248
 31
0.0
  0
LINE
  5
161A3
  8
5-3図補助
 10
27.75038602273391
 20
24.160184224730379
 30
0.0
 11
29.316409161666709
 21
25.726207363663171
 31
0.0
  0
LINE
  5
161A4
  8
5-3図補助
 10
21.928307020764599
 20
18.992271220312912
 30
0.0
 11
23.162115629079288
 21
20.226079828627601
 31
0.0
  0
LINE
  5
161A5
  8
5-3図補助
 10
27.960669753944579
 20
25.024633953492891
 30
0.0
 11
29.355962249874921
 21
26.419926449423219
 31
0.0
  0
LINE
  5
161A6
  8
5-3図補助
 10
21.294184391427532
 20
19.012314588528191
 30
0.0
 11
22.400878581107829
 21
20.119008778208151
 31
0.0
  0
LINE
  5
161A7
  8
5-3図補助
 10
28.030113391676899
 20
25.748243588777221
 30
0.0
 11
29.335918881659971
 21
27.054049078760119
 31
0.0
  0
LINE
  5
161A8
  8
5-3図補助
 10
20.706816377115981
 20
19.079112571768309
 30
0.0
 11
21.72226539527438
 21
20.094561589926531
 31
0.0
  0
LINE
  5
161A9
  8
5-3図補助
 10
27.984417514440018
 20
26.35671370909218
 30
0.0
 11
29.269120898419509
 21
27.641417093071681
 31
0.0
  0
LINE
  5
161AA
  8
5-3図補助
 10
20.15808768896775
 20
19.18454988117141
 30
0.0
 11
21.11080878512373
 21
20.137270977327741
 31
0.0
  0
LINE
  5
161AB
  8
5-3図補助
 10
27.830831231069869
 20
26.85729342327371
 30
0.0
 11
29.163683589016411
 21
28.190145781220419
 31
0.0
  0
LINE
  5
161AC
  8
5-3図補助
 10
19.64251843411321
 20
19.323146623869231
 30
0.0
 11
20.541259707365072
 21
20.221887897120752
 31
0.0
  0
LINE
  5
161AD
  8
5-3図補助
 10
27.611372062744771
 20
27.292000252500792
 30
0.0
 11
29.025086846318601
 21
28.705715036074611
 31
0.0
  0
LINE
  5
161AE
  8
5-3図補助
 10
19.15624141244691
 20
19.491035599754941
 30
0.0
 11
20.017374668494789
 21
20.35216885580283
 31
0.0
  0
LINE
  5
161AF
  8
5-3図補助
 10
27.34168095973612
 20
27.67647514704381
 30
0.0
 11
28.857197870432881
 21
29.191992057740912
 31
0.0
  0
LINE
  5
161B0
  8
5-3図補助
 10
18.696448504406948
 20
19.685408689266659
 30
0.0
 11
19.532817622309398
 21
20.521777807169109
 31
0.0
  0
LINE
  5
161B1
  8
5-3図補助
 10
27.026133408106521
 20
28.015093592966391
 30
0.0
 11
28.66282478092117
 21
29.65178496578104
 31
0.0
  0
LINE
  5
161B2
  8
5-3図補助
 10
18.261068357999211
 20
19.904194540410931
 30
0.0
 11
19.07168967135955
 21
20.714815853771281
 31
0.0
  0
LINE
  5
161B3
  8
5-3図補助
 10
26.670369266610599
 20
28.31349544902233
 30
0.0
 11
28.444038929776891
 21
30.08716511218844
 31
0.0
  0
LINE
  5
161B4
  8
5-3図補助
 10
17.848568653051888
 20
20.145860833015281
 30
0.0
 11
18.641984013478371
 21
20.939276193441941
 31
0.0
  0
LINE
  5
161B5
  8
5-3図補助
 10
26.283939003764338
 20
28.581231183727731
 30
0.0
 11
28.202372637172541
 21
30.499664817136271
 31
0.0
  0
LINE
  5
161B6
  8
5-3図補助
 10
17.457830473840112
 20
20.409288651355521
 30
0.0
 11
18.23588095602646
 21
21.187339133541879
 31
0.0
  0
LINE
  5
161B7
  8
5-3図補助
 10
25.864435033008728
 20
28.815893210524131
 30
0.0
 11
27.93894481883196
 21
30.89040299634771
 31
0.0
  0
LINE
  5
161B8
  8
5-3図補助
 10
17.088067179413901
 20
20.69369135448132
 30
0.0
 11
17.85975380566698
 21
21.465377980734409
 31
0.0
  0
LINE
  5
161B9
  8
5-3図補助
 10
25.417425445455631
 20
29.023049620522691
 30
0.0
 11
27.654542115706501
 21
31.26016629077392
 31
0.0
  0
LINE
  5
161BA
  8
5-3図補助
 10
16.738772541001389
 20
20.998562713620821
 30
0.0
 11
17.510838158839888
 21
21.770628331459331
 31
0.0
  0
LINE
  5
161BB
  8
5-3図補助
 10
24.939184796774981
 20
29.198974969394069
 30
0.0
 11
27.349670756567001
 21
31.609460929186429
 31
0.0
  0
LINE
  5
161BC
  8
5-3図補助
 10
16.40968956880706
 20
21.323645738978168
 30
0.0
 11
17.178221548801069
 21
22.092177718972518
 31
0.0
  0
LINE
  5
161BD
  8
5-3図補助
 10
24.438896742081649
 20
29.35285291225275
 30
0.0
 11
27.02458773120966
 21
31.938543901380928
 31
0.0
  0
LINE
  5
161BE
  8
5-3図補助
 10
16.100795335494261
 20
21.66891750321772
 30
0.0
 11
16.877063919973601
 21
22.445186087696889
 31
0.0
  0
LINE
  5
161BF
  8
5-3図補助
 10
23.908344925537929
 20
29.476467093261039
 30
0.0
 11
26.679315966970101
 21
32.24743813469339
 31
0.0
  0
LINE
  5
161C0
  8
5-3図補助
 10
15.812299643254869
 20
22.034587808529832
 30
0.0
 11
16.608078487161741
 21
22.830366652436702
 31
0.0
  0
LINE
  5
161C1
  8
5-3図補助
 10
23.354807052661972
 20
29.577095217937291
 30
0.0
 11
26.313645661657819
 21
32.535933826932961
 31
0.0
  0
LINE
  5
161C2
  8
5-3図補助
 10
15.544657349564
 20
22.421111512391139
 30
0.0
 11
16.358159275534739
 21
23.234613438361539
 31
0.0
  0
LINE
  5
161C3
  8
5-3図補助
 10
22.76909954451483
 20
29.64555370734163
 30
0.0
 11
25.927121957796679
 21
32.80357612062366
 31
0.0
  0
LINE
  5
161C4
  8
5-3図補助
 10
15.29859608733809
 20
22.829216247717252
 30
0.0
 11
16.141192762352961
 21
23.671812922732119
 31
0.0
  0
LINE
  5
161C5
  8
5-3図補助
 10
23.539050575074981
 20
31.069670735453791
 30
0.0
 11
25.519017222470911
 21
33.049637382849561
 31
0.0
  0
LINE
  5
161C6
  8
5-3図補助
 10
15.075163491878831
 20
23.259949649809322
 30
0.0
 11
15.956829940009589
 21
24.141616097940439
 31
0.0
  0
LINE
  5
161C7
  8
5-3図補助
 10
23.518502886302279
 20
31.703289044232768
 30
0.0
 11
25.0882838203785
 21
33.27306997830933
 31
0.0
  0
LINE
  5
161C8
  8
5-3図補助
 10
14.875801580741401
 20
23.71475373622425
 30
0.0
 11
15.809247035653719
 21
24.648199191136388
 31
0.0
  0
LINE
  5
161C9
  8
5-3図補助
 10
20.79630595100982
 20
29.635258106492671
 30
0.0
 11
21.004486271548348
 21
29.843438427031028
 31
0.0
  0
LINE
  5
161CA
  8
5-3図補助
 10
23.336776381724832
 20
32.175728537207668
 30
0.0
 11
24.63347973396392
 21
33.472431889446248
 31
0.0
  0
LINE
  5
161CB
  8
5-3図補助
 10
14.70246186944134
 20
24.1955800224762
 30
0.0
 11
15.712072312672049
 21
25.205190465706909
 31
0.0
  0
LINE
  5
161CC
  8
5-3図補助
 10
20.02974381840604
 20
29.522861971440559
 30
0.0
 11
20.633667045753011
 21
30.126785198787861
 31
0.0
  0
LINE
  5
161CD
  8
5-3図補助
 10
23.053429609968148
 20
32.546547763003012
 30
0.0
 11
24.152653447711621
 21
33.645771600746478
 31
0.0
  0
LINE
  5
161CE
  8
5-3図補助
 10
14.55778568504561
 20
24.705069835631971
 30
0.0
 11
15.664923731612721
 21
25.81220788219925
 31
0.0
  0
LINE
  5
161CF
  8
5-3図補助
 10
19.18718085180241
 20
29.334465002388949
 30
0.0
 11
20.352951440940181
 21
30.500235591526369
 31
0.0
  0
LINE
  5
161D0
  8
5-3図補助
 10
22.679979217229651
 20
32.82726336781618
 30
0.0
 11
23.643163634556029
 21
33.790447785142213
 31
0.0
  0
LINE
  5
161D1
  8
5-3図補助
 10
14.445395652472619
 20
25.246845800610821
 30
0.0
 11
15.7640134884057
 21
26.565463636544241
 31
0.0
  0
LINE
  5
161D2
  8
5-3図補助
 10
18.178703313997541
 20
28.98015346213608
 30
0.0
 11
20.174616424870489
 21
30.976066573008691
 31
0.0
  0
LINE
  5
161D3
  8
5-3図補助
 10
22.20414823574767
 20
33.005598383885889
 30
0.0
 11
23.101387669577001
 21
33.902837817715543
 31
0.0
  0
LINE
  5
161D4
  8
5-3図補助
 10
14.37039045863505
 20
25.826006604325279
 30
0.0
 11
20.161037225328091
 21
31.616653371018309
 31
0.0
  0
LINE
  5
161D5
  8
5-3図補助
 10
21.563561437737722
 20
33.019177583428267
 30
0.0
 11
22.522226865862901
 21
33.977843011553112
 31
0.0
  0
LINE
  5
161D6
  8
5-3図補助
 10
14.34024400449632
 20
26.450026147738551
 30
0.0
 11
21.89820732244927
 21
34.007989465691672
 31
0.0
  0
LINE
  5
161D7
  8
5-3図補助
 10
14.36660198050779
 20
27.130550121302029
 30
0.0
 11
21.217683348885789
 21
33.981631489680026
 31
0.0
  0
LINE
  5
161D8
  8
5-3図補助
 10
14.469397968897759
 20
27.88751210724401
 30
0.0
 11
20.460721362943811
 21
33.878835501290062
 31
0.0
  0
LINE
  5
161D9
  8
5-3図補助
 10
14.68855174467628
 20
28.760831880574209
 30
0.0
 11
19.587401589613609
 21
33.65968172551154
 31
0.0
  0
LINE
  5
161DA
  8
5-3図補助
 10
15.13416789399982
 20
29.860614027449589
 30
0.0
 11
18.487619442738399
 21
33.214065576188183
 31
0.0
  0
LINE
  5
161DB
  8
5-3図補助
 10
42.491711725014291
 20
21.239027993108969
 30
0.0
 11
43.957741969018358
 21
22.70505823711337
 31
0.0
  0
LINE
  5
161DC
  8
5-3図補助
 10
41.74616885335606
 20
21.147651119002742
 30
0.0
 11
44.017409554536819
 21
23.41889182018334
 31
0.0
  0
LINE
  5
161DD
  8
5-3図補助
 10
41.092002855804367
 20
21.147651119002742
 30
0.0
 11
44.017409554536819
 21
24.073057817735179
 31
0.0
  0
LINE
  5
161DE
  8
5-3図補助
 10
40.437836858252361
 20
21.147651119002742
 30
0.0
 11
44.017409554536819
 21
24.7272238152872
 31
0.0
  0
LINE
  5
161DF
  8
5-3図補助
 10
39.783670860700362
 20
21.147651119002742
 30
0.0
 11
44.017409554536819
 21
25.38138981283922
 31
0.0
  0
LINE
  5
161E0
  8
5-3図補助
 10
39.129504863148689
 20
21.147651119002742
 30
0.0
 11
44.017409554536819
 21
26.035555810391049
 31
0.0
  0
LINE
  5
161E1
  8
5-3図補助
 10
38.47533886559669
 20
21.147651119002742
 30
0.0
 11
41.448865814490098
 21
24.121178067896022
 31
0.0
  0
LINE
  5
161E2
  8
5-3図補助
 10
42.306365588149447
 20
24.978677841555541
 30
0.0
 11
44.017409554536819
 21
26.68972180794308
 31
0.0
  0
LINE
  5
161E3
  8
5-3図補助
 10
37.821172868044663
 20
21.147651119002742
 30
0.0
 11
40.794699816938099
 21
24.121178067896022
 31
0.0
  0
LINE
  5
161E4
  8
5-3図補助
 10
42.228587453324756
 20
25.555065704282491
 30
0.0
 11
44.017409554536819
 21
27.343887805494909
 31
0.0
  0
LINE
  5
161E5
  8
5-3図補助
 10
37.16700687049299
 20
21.147651119002742
 30
0.0
 11
40.140533819386079
 21
24.121178067896022
 31
0.0
  0
LINE
  5
161E6
  8
5-3図補助
 10
41.775973921019848
 20
25.756618169529609
 30
0.0
 11
44.017409554536819
 21
27.998053803046581
 31
0.0
  0
LINE
  5
161E7
  8
5-3図補助
 10
36.512840872940643
 20
21.147651119002742
 30
0.0
 11
39.486367821834421
 21
24.121178067896182
 31
0.0
  0
LINE
  5
161E8
  8
5-3図補助
 10
41.121807923467848
 20
25.756618169529609
 30
0.0
 11
44.017409554536819
 21
28.652219800598591
 31
0.0
  0
LINE
  5
161E9
  8
5-3図補助
 10
35.858674875388971
 20
21.147651119002742
 30
0.0
 11
38.8322018242824
 21
24.121178067896182
 31
0.0
  0
LINE
  5
161EA
  8
5-3図補助
 10
40.467641925915842
 20
25.756618169529609
 30
0.0
 11
41.6570527054728
 21
26.946028949086578
 31
0.0
  0
LINE
  5
161EB
  8
5-3図補助
 10
42.306365588149447
 20
27.595341831762902
 30
0.0
 11
44.017409554536819
 21
29.306385798150441
 31
0.0
  0
LINE
  5
161EC
  8
5-3図補助
 10
35.218769683689082
 20
21.161911924854529
 30
0.0
 11
38.178035826730387
 21
24.121178067896182
 31
0.0
  0
LINE
  5
161ED
  8
5-3図補助
 10
39.813475928363822
 20
25.756618169529609
 30
0.0
 11
41.002886707921128
 21
26.946028949086578
 31
0.0
  0
LINE
  5
161EE
  8
5-3図補助
 10
42.292715313001978
 20
28.235857554167769
 30
0.0
 11
43.933051214077757
 21
29.876193455243389
 31
0.0
  0
LINE
  5
161EF
  8
5-3図補助
 10
34.706882123157598
 20
21.304190361875069
 30
0.0
 11
37.523869829178707
 21
24.121178067896182
 31
0.0
  0
LINE
  5
161F0
  8
5-3図補助
 10
39.15930993081215
 20
25.756618169529609
 30
0.0
 11
40.348720710369101
 21
26.946028949086578
 31
0.0
  0
LINE
  5
161F1
  8
5-3図補助
 10
41.968499999440169
 20
28.565808238157469
 30
0.0
 11
43.47092409995448
 21
30.068232338672111
 31
0.0
  0
LINE
  5
161F2
  8
5-3図補助
 10
34.26921089150246
 20
21.52068512777193
 30
0.0
 11
36.869703831626701
 21
24.121178067896182
 31
0.0
  0
LINE
  5
161F3
  8
5-3図補助
 10
38.505143933260143
 20
25.756618169529609
 30
0.0
 11
39.694554712817443
 21
26.946028949086578
 31
0.0
  0
LINE
  5
161F4
  8
5-3図補助
 10
41.329994814450529
 20
28.58146905072001
 30
0.0
 11
42.816758102402467
 21
30.068232338672111
 31
0.0
  0
LINE
  5
161F5
  8
5-3図補助
 10
33.832992685870323
 20
21.738632919691799
 30
0.0
 11
36.215537834074688
 21
24.121178067896182
 31
0.0
  0
LINE
  5
161F6
  8
5-3図補助
 10
37.850977935708123
 20
25.756618169529609
 30
0.0
 11
39.040388715265429
 21
26.946028949086578
 31
0.0
  0
LINE
  5
161F7
  8
5-3図補助
 10
40.675828816898523
 20
28.58146905072001
 30
0.0
 11
42.162592104850802
 21
30.068232338672111
 31
0.0
  0
LINE
  5
161F8
  8
5-3図補助
 10
33.530698867862519
 20
22.090505099235511
 30
0.0
 11
35.561371836523023
 21
24.121178067896182
 31
0.0
  0
LINE
  5
161F9
  8
5-3図補助
 10
37.19681193815611
 20
25.756618169529609
 30
0.0
 11
38.386222717713423
 21
26.946028949086578
 31
0.0
  0
LINE
  5
161FA
  8
5-3図補助
 10
40.021662819346851
 20
28.58146905072001
 30
0.0
 11
41.508426107298781
 21
30.068232338672111
 31
0.0
  0
LINE
  5
161FB
  8
5-3図補助
 10
33.318714042385658
 20
22.53268627131083
 30
0.0
 11
34.988727934965731
 21
24.202700163890739
 31
0.0
  0
LINE
  5
161FC
  8
5-3図補助
 10
36.542645940604437
 20
25.756618169529609
 30
0.0
 11
37.732056720161403
 21
26.946028949086578
 31
0.0
  0
LINE
  5
161FD
  8
5-3図補助
 10
39.367496821794852
 20
28.58146905072001
 30
0.0
 11
40.854260109747102
 21
30.068232338672111
 31
0.0
  0
LINE
  5
161FE
  8
5-3図補助
 10
33.230394133643841
 20
23.098532360120679
 30
0.0
 11
34.792651479608161
 21
24.66078970608535
 31
0.0
  0
LINE
  5
161FF
  8
5-3図補助
 10
35.888479943052779
 20
25.756618169529609
 30
0.0
 11
37.077890722609723
 21
26.946028949086578
 31
0.0
  0
LINE
  5
16200
  8
5-3図補助
 10
38.713330824242817
 20
28.58146905072001
 30
0.0
 11
40.254220846046593
 21
30.122359072523611
 31
0.0
  0
LINE
  5
16201
  8
5-3図補助
 10
33.230394133643841
 20
23.752698357672688
 30
0.0
 11
34.792897422415777
 21
25.315201646444979
 31
0.0
  0
LINE
  5
16202
  8
5-3図補助
 10
35.234068002692787
 20
25.756372226721808
 30
0.0
 11
36.423724725057717
 21
26.946028949086578
 31
0.0
  0
LINE
  5
16203
  8
5-3図補助
 10
38.059164826691152
 20
28.58146905072001
 30
0.0
 11
40.230154268355598
 21
30.752458492384811
 31
0.0
  0
LINE
  5
16204
  8
5-3図補助
 10
33.230394133643841
 20
24.406864355224538
 30
0.0
 11
35.769558727505697
 21
26.946028949086578
 31
0.0
  0
LINE
  5
16205
  8
5-3図補助
 10
37.404998829139139
 20
28.58146905072001
 30
0.0
 11
40.422682454631861
 21
31.59915267621292
 31
0.0
  0
LINE
  5
16206
  8
5-3図補助
 10
33.230394133643841
 20
25.061030352776381
 30
0.0
 11
35.130940013021949
 21
26.961576232154659
 31
0.0
  0
LINE
  5
16207
  8
5-3図補助
 10
36.750832831587132
 20
28.58146905072001
 30
0.0
 11
40.23976483448839
 21
32.070401053621282
 31
0.0
  0
LINE
  5
16208
  8
5-3図補助
 10
33.230394133643841
 20
25.71519635032822
 30
0.0
 11
34.806409303242411
 21
27.291211519927138
 31
0.0
  0
LINE
  5
16209
  8
5-3図補助
 10
36.09666683403546
 20
28.58146905072001
 30
0.0
 11
39.590560952361578
 21
32.075363169046142
 31
0.0
  0
LINE
  5
1620A
  8
5-3図補助
 10
33.230394133643841
 20
26.36936234788006
 30
0.0
 11
34.792651479608161
 21
27.931619693844731
 31
0.0
  0
LINE
  5
1620B
  8
5-3図補助
 10
35.442500836483433
 20
28.58146905072001
 30
0.0
 11
36.92926412443537
 21
30.068232338672111
 31
0.0
  0
LINE
  5
1620C
  8
5-3図補助
 10
37.726477356150347
 20
30.865445570386921
 30
0.0
 11
38.936394954809572
 21
32.075363169046142
 31
0.0
  0
LINE
  5
1620D
  8
5-3図補助
 10
33.230394133643841
 20
27.02352834543208
 30
0.0
 11
36.275098126883712
 21
30.068232338672111
 31
0.0
  0
LINE
  5
1620E
  8
5-3図補助
 10
37.91900554242627
 20
31.71213975421486
 30
0.0
 11
38.272596938610171
 21
32.065731150398747
 31
0.0
  0
LINE
  5
1620F
  8
5-3図補助
 10
33.230394133643493
 20
27.67769434298409
 30
0.0
 11
35.620932129331692
 21
30.068232338672111
 31
0.0
  0
LINE
  5
16210
  8
5-3図補助
 10
33.230394133643493
 20
28.331860340535759
 30
0.0
 11
34.966766131779671
 21
30.068232338672111
 31
0.0
  0
LINE
  5
16211
  8
5-3図補助
 10
33.230394133643493
 20
28.986026338087779
 30
0.0
 11
34.312600134227999
 21
30.068232338672111
 31
0.0
  0
LINE
  5
16212
  8
5-3図補助
 10
33.231335552893512
 20
29.64113375488963
 30
0.0
 11
33.657492717425967
 21
30.067290919422099
 31
0.0
  0
LINE
  5
16213
  8
5-3図補助
 10
55.052503465432352
 20
21.370665780040461
 30
0.0
 11
55.10199759671152
 21
21.42015991131964
 31
0.0
  0
LINE
  5
16214
  8
5-3図補助
 10
54.446815850751832
 20
21.419144162911969
 30
0.0
 11
55.10199759671152
 21
22.074325908871479
 31
0.0
  0
LINE
  5
16215
  8
5-3図補助
 10
53.975424008640182
 20
21.601918318351998
 30
0.0
 11
55.10199759671152
 21
22.728491906423319
 31
0.0
  0
LINE
  5
16216
  8
5-3図補助
 10
53.599510183370533
 20
21.880170490634349
 30
0.0
 11
55.10199759671152
 21
23.382657903975328
 31
0.0
  0
LINE
  5
16217
  8
5-3図補助
 10
53.26432861760204
 20
22.199154922417531
 30
0.0
 11
55.10199759671152
 21
24.036823901527349
 31
0.0
  0
LINE
  5
16218
  8
5-3図補助
 10
52.929147051833539
 20
22.51813935420105
 30
0.0
 11
54.795509595179077
 21
24.384501897546919
 31
0.0
  0
LINE
  5
16219
  8
5-3図補助
 10
50.53280209034213
 20
20.775960390261812
 30
0.0
 11
51.010371420944942
 21
21.25352972086446
 31
0.0
  0
LINE
  5
1621A
  8
5-3図補助
 10
52.593965486064711
 20
22.837123785984559
 30
0.0
 11
54.191374323142121
 21
24.434532623061639
 31
0.0
  0
LINE
  5
1621B
  8
5-3図補助
 10
49.878636092790451
 20
20.775960390261812
 30
0.0
 11
51.010371420944942
 21
21.907695718416299
 31
0.0
  0
LINE
  5
1621C
  8
5-3図補助
 10
52.336935380894182
 20
23.234259678365699
 30
0.0
 11
53.757207163483152
 21
24.654531460954701
 31
0.0
  0
LINE
  5
1621D
  8
5-3図補助
 10
49.224470095238431
 20
20.775960390261812
 30
0.0
 11
51.010371420944942
 21
22.56186171596848
 31
0.0
  0
LINE
  5
1621E
  8
5-3図補助
 10
52.085218397109323
 20
23.63670869213254
 30
0.0
 11
53.444224357958561
 21
24.995714652981771
 31
0.0
  0
LINE
  5
1621F
  8
5-3図補助
 10
48.570304097686417
 20
20.775960390261812
 30
0.0
 11
51.010371420944942
 21
23.216027713520148
 31
0.0
  0
LINE
  5
16220
  8
5-3図補助
 10
51.833501413324498
 20
24.039157705899719
 30
0.0
 11
53.131241552433643
 21
25.336897845008849
 31
0.0
  0
LINE
  5
16221
  8
5-3図補助
 10
48.25782235072645
 20
21.117644640853509
 30
0.0
 11
51.010371420944942
 21
23.870193711072169
 31
0.0
  0
LINE
  5
16222
  8
5-3図補助
 10
51.58621545193138
 20
24.44603774205827
 30
0.0
 11
52.839107124526677
 21
25.69892941465374
 31
0.0
  0
LINE
  5
16223
  8
5-3図補助
 10
48.25782235072645
 20
21.771810638405348
 30
0.0
 11
51.010371420944942
 21
24.524359708624011
 31
0.0
  0
LINE
  5
16224
  8
5-3図補助
 10
51.416890861762141
 20
24.93087914944137
 30
0.0
 11
52.558631705627718
 21
26.072619993306802
 31
0.0
  0
LINE
  5
16225
  8
5-3図補助
 10
48.25782235072645
 20
22.425976635957358
 30
0.0
 11
49.360952994102973
 21
23.52910727933422
 31
0.0
  0
LINE
  5
16226
  8
5-3図補助
 10
49.594265847610608
 20
23.762420132841861
 30
0.0
 11
51.010371420944942
 21
25.178525706175861
 31
0.0
  0
LINE
  5
16227
  8
5-3図補助
 10
51.382337042655102
 20
25.550491327886348
 30
0.0
 11
52.303904463937457
 21
26.472058749168379
 31
0.0
  0
LINE
  5
16228
  8
5-3図補助
 10
48.25782235072645
 20
23.080142633509372
 30
0.0
 11
48.704152768323659
 21
23.526473051106411
 31
0.0
  0
LINE
  5
16229
  8
5-3図補助
 10
49.59690007583891
 20
24.41922035862185
 30
0.0
 11
51.010371420944942
 21
25.832691703727871
 31
0.0
  0
LINE
  5
1622A
  8
5-3図補助
 10
51.382337042655102
 20
26.204657325438369
 30
0.0
 11
52.148870950829199
 21
26.971191233612469
 31
0.0
  0
LINE
  5
1622B
  8
5-3図補助
 10
49.59690007583891
 20
25.073386356173518
 30
0.0
 11
51.010371420944942
 21
26.48685770127971
 31
0.0
  0
LINE
  5
1622C
  8
5-3図補助
 10
51.382337042655102
 20
26.858823322990212
 30
0.0
 11
54.300229532445222
 21
29.776715812780498
 31
0.0
  0
LINE
  5
1622D
  8
5-3図補助
 10
45.315132132554027
 20
21.445784410440488
 30
0.0
 11
48.118755186250191
 21
24.249407464137128
 31
0.0
  0
LINE
  5
1622E
  8
5-3図補助
 10
49.59690007583891
 20
25.727552353725539
 30
0.0
 11
51.010371420944942
 21
27.14102369883156
 31
0.0
  0
LINE
  5
1622F
  8
5-3図補助
 10
51.382337042655102
 20
27.512989320542061
 30
0.0
 11
53.942610647720031
 21
30.07326292560699
 31
0.0
  0
LINE
  5
16230
  8
5-3図補助
 10
44.686948417093411
 20
21.471766692532029
 30
0.0
 11
48.620817512930692
 21
25.40563578836932
 31
0.0
  0
LINE
  5
16231
  8
5-3図補助
 10
49.59690007583891
 20
26.381718351277549
 30
0.0
 11
51.010371420944942
 21
27.79518969638357
 31
0.0
  0
LINE
  5
16232
  8
5-3図補助
 10
51.382337042655102
 20
28.167155318094071
 30
0.0
 11
53.579065599892168
 21
30.363883875330451
 31
0.0
  0
LINE
  5
16233
  8
5-3図補助
 10
44.686948417093411
 20
22.125932690083879
 30
0.0
 11
48.801580378124783
 21
26.240564651115239
 31
0.0
  0
LINE
  5
16234
  8
5-3図補助
 10
49.59690007583891
 20
27.035884348829391
 30
0.0
 11
51.010371420944942
 21
28.44935569393558
 31
0.0
  0
LINE
  5
16235
  8
5-3図補助
 10
44.686948417093411
 20
22.780098687635721
 30
0.0
 11
48.920623914185867
 21
27.013774184728021
 31
0.0
  0
LINE
  5
16236
  8
5-3図補助
 10
49.59690007583891
 20
27.690050346381231
 30
0.0
 11
51.010371420944942
 21
29.103521691487419
 31
0.0
  0
LINE
  5
16237
  8
5-3図補助
 10
44.686948417093411
 20
23.434264685187738
 30
0.0
 11
46.148397087249819
 21
24.895713355344149
 31
0.0
  0
LINE
  5
16238
  8
5-3図補助
 10
47.727690833122558
 20
26.475007101217241
 30
0.0
 11
49.001754833276223
 21
27.749071101370731
 31
0.0
  0
LINE
  5
16239
  8
5-3図補助
 10
49.59690007583891
 20
28.344216343933251
 30
0.0
 11
51.010371420944942
 21
29.757687689039269
 31
0.0
  0
LINE
  5
1623A
  8
5-3図補助
 10
44.686948417093411
 20
24.088430682739411
 30
0.0
 11
45.3961747397748
 21
24.797657005420799
 31
0.0
  0
LINE
  5
1623B
  8
5-3図補助
 10
47.959077260934933
 20
27.360559526581621
 30
0.0
 11
49.001754833276223
 21
28.40323709892257
 31
0.0
  0
LINE
  5
1623C
  8
5-3図補助
 10
49.59690007583891
 20
28.99838234148493
 30
0.0
 11
51.010371420944942
 21
30.411853686591289
 31
0.0
  0
LINE
  5
1623D
  8
5-3図補助
 10
47.856777177397042
 20
27.912425440595221
 30
0.0
 11
49.001754833276223
 21
29.05740309647458
 31
0.0
  0
LINE
  5
1623E
  8
5-3図補助
 10
49.59690007583891
 20
29.65254833903694
 30
0.0
 11
51.010371420944942
 21
31.066019684143122
 31
0.0
  0
LINE
  5
1623F
  8
5-3図補助
 10
47.202611179845022
 20
27.912425440595221
 30
0.0
 11
48.763712688143428
 21
29.473526948893461
 31
0.0
  0
LINE
  5
16240
  8
5-3図補助
 10
49.59690007583891
 20
30.30671433658895
 30
0.0
 11
50.956907726367291
 21
31.66672198711748
 31
0.0
  0
LINE
  5
16241
  8
5-3図補助
 10
46.548445182293342
 20
27.912425440595221
 30
0.0
 11
48.109546690591422
 21
29.473526948893461
 31
0.0
  0
LINE
  5
16242
  8
5-3図補助
 10
49.59690007583891
 20
30.96088033414096
 30
0.0
 11
50.414030402349468
 21
31.778010660651169
 31
0.0
  0
LINE
  5
16243
  8
5-3図補助
 10
45.894279184741343
 20
27.912425440595221
 30
0.0
 11
47.455380693039409
 21
29.473526948893461
 31
0.0
  0
LINE
  5
16244
  8
5-3図補助
 10
49.656183355885808
 20
31.67432961173952
 30
0.0
 11
49.700581124750222
 21
31.71872738060447
 31
0.0
  0
LINE
  5
16245
  8
5-3図補助
 10
45.240113187189323
 20
27.912425440595221
 30
0.0
 11
46.801214695487722
 21
29.473526948893461
 31
0.0
  0
LINE
  5
16246
  8
5-3図補助
 10
44.723354659579421
 20
28.049832910537159
 30
0.0
 11
46.147048697935709
 21
29.473526948893461
 31
0.0
  0
LINE
  5
16247
  8
5-3図補助
 10
44.686948417093411
 20
28.667592665602822
 30
0.0
 11
45.492882700383703
 21
29.473526948893461
 31
0.0
  0
LINE
  5
16248
  8
5-3図補助
 10
66.023126441601136
 20
21.220466797827068
 30
0.0
 11
66.358140025415892
 21
21.555480381641502
 31
0.0
  0
LINE
  5
16249
  8
5-3図補助
 10
65.368960444049463
 20
21.220466797827068
 30
0.0
 11
66.358140025415892
 21
22.209646379193511
 31
0.0
  0
LINE
  5
1624A
  8
5-3図補助
 10
64.714794446497791
 20
21.220466797827068
 30
0.0
 11
66.358140025415892
 21
22.863812376745361
 31
0.0
  0
LINE
  5
1624B
  8
5-3図補助
 10
64.060628448945437
 20
21.220466797827068
 30
0.0
 11
66.262548228410907
 21
23.422386577292201
 31
0.0
  0
LINE
  5
1624C
  8
5-3図補助
 10
63.461710841072112
 20
21.275715187504911
 30
0.0
 11
65.785284010508391
 21
23.599288356941681
 31
0.0
  0
LINE
  5
1624D
  8
5-3図補助
 10
66.603004061325265
 20
24.417008407758232
 30
0.0
 11
67.027678887972485
 21
24.841683234405622
 31
0.0
  0
LINE
  5
1624E
  8
5-3図補助
 10
63.076649785292169
 20
21.544820129277149
 30
0.0
 11
65.131118012956705
 21
23.599288356941681
 31
0.0
  0
LINE
  5
1624F
  8
5-3図補助
 10
65.948838063773252
 20
24.417008407758232
 30
0.0
 11
66.911610106121344
 21
25.379780450106491
 31
0.0
  0
LINE
  5
16250
  8
5-3図補助
 10
62.872254075747172
 20
21.994590417284169
 30
0.0
 11
64.532464079206221
 21
23.654800420743221
 31
0.0
  0
LINE
  5
16251
  8
5-3図補助
 10
65.294672066221253
 20
24.417008407758232
 30
0.0
 11
66.409744625432751
 21
25.532080966969399
 31
0.0
  0
LINE
  5
16252
  8
5-3図補助
 10
62.861659092212001
 20
22.638161431301022
 30
0.0
 11
64.431767018102292
 21
24.208269357190972
 31
0.0
  0
LINE
  5
16253
  8
5-3図補助
 10
64.632655488743282
 20
24.409157827832271
 30
0.0
 11
66.13496040456404
 21
25.911462743653061
 31
0.0
  0
LINE
  5
16254
  8
5-3図補助
 10
62.861659092212001
 20
23.292327428852861
 30
0.0
 11
66.13496040456404
 21
26.56562874120473
 31
0.0
  0
LINE
  5
16255
  8
5-3図補助
 10
62.861659092212001
 20
23.946493426404711
 30
0.0
 11
64.447246632777023
 21
25.53208096696974
 31
0.0
  0
LINE
  5
16256
  8
5-3図補助
 10
64.933074648992289
 20
26.017908983184981
 30
0.0
 11
66.13496040456404
 21
27.21979473875674
 31
0.0
  0
LINE
  5
16257
  8
5-3図補助
 10
62.666470393138539
 20
24.405470724883251
 30
0.0
 11
63.90316419604347
 21
25.642164527788189
 31
0.0
  0
LINE
  5
16258
  8
5-3図補助
 10
64.313447804657727
 20
26.052448136402429
 30
0.0
 11
66.13496040456404
 21
27.873960736308749
 31
0.0
  0
LINE
  5
16259
  8
5-3図補助
 10
58.827300468530332
 20
21.220466797827068
 30
0.0
 11
59.9603240211352
 21
22.353490350431588
 31
0.0
  0
LINE
  5
1625A
  8
5-3図補助
 10
62.023842078461847
 20
24.417008407758232
 30
0.0
 11
66.13496040456404
 21
28.528126733860429
 31
0.0
  0
LINE
  5
1625B
  8
5-3図補助
 10
58.173134470978319
 20
21.220466797827068
 30
0.0
 11
59.9603240211352
 21
23.007656347983609
 31
0.0
  0
LINE
  5
1625C
  8
5-3図補助
 10
61.369676080909841
 20
24.417008407758232
 30
0.0
 11
62.484777393251441
 21
25.532109720099658
 31
0.0
  0
LINE
  5
1625D
  8
5-3図補助
 10
62.93602333951106
 20
25.983355666359468
 30
0.0
 11
64.268864809457455
 21
27.31619713630587
 31
0.0
  0
LINE
  5
1625E
  8
5-3図補助
 10
64.960349688534535
 20
28.007682015382919
 30
0.0
 11
66.13496040456404
 21
29.182292731412439
 31
0.0
  0
LINE
  5
1625F
  8
5-3図補助
 10
57.518968473426654
 20
21.220466797827068
 30
0.0
 11
59.9603240211352
 21
23.661822345535281
 31
0.0
  0
LINE
  5
16260
  8
5-3図補助
 10
60.71551008335782
 20
24.417008407758232
 30
0.0
 11
61.830582642569333
 21
25.53208096696974
 31
0.0
  0
LINE
  5
16261
  8
5-3図補助
 10
62.93605209264117
 20
26.63755041704141
 30
0.0
 11
63.90316419604347
 21
27.604662520443721
 31
0.0
  0
LINE
  5
16262
  8
5-3図補助
 10
64.358080642375882
 20
28.059578966776279
 30
0.0
 11
66.13496040456404
 21
29.836458728964281
 31
0.0
  0
LINE
  5
16263
  8
5-3図補助
 10
56.864802475875003
 20
21.220466797827068
 30
0.0
 11
59.9603240211352
 21
24.315988343087291
 31
0.0
  0
LINE
  5
16264
  8
5-3図補助
 10
60.061344085806141
 20
24.417008407758232
 30
0.0
 11
61.176416645017319
 21
25.53208096696974
 31
0.0
  0
LINE
  5
16265
  8
5-3図補助
 10
62.93605209264117
 20
27.29171641459342
 30
0.0
 11
66.13496040456404
 21
30.490624726516469
 31
0.0
  0
LINE
  5
16266
  8
5-3図補助
 10
56.240663467078811
 20
21.25049378658289
 30
0.0
 11
60.522250647465647
 21
25.53208096696974
 31
0.0
  0
LINE
  5
16267
  8
5-3図補助
 10
62.93605209264117
 20
27.94588241214527
 30
0.0
 11
64.313497647175296
 21
29.32332796667955
 31
0.0
  0
LINE
  5
16268
  8
5-3図補助
 10
64.984941785620123
 20
29.994772105124198
 30
0.0
 11
65.894579412522532
 21
30.904409732026771
 31
0.0
  0
LINE
  5
16269
  8
5-3図補助
 10
56.240663467078811
 20
21.9046597841349
 30
0.0
 11
57.860953819539439
 21
23.524950136595539
 31
0.0
  0
LINE
  5
1626A
  8
5-3図補助
 10
58.398066675170547
 20
24.06206299222665
 30
0.0
 11
60.010807005491877
 21
25.674803322548339
 31
0.0
  0
LINE
  5
1626B
  8
5-3図補助
 10
62.93605209264117
 20
28.600048409697269
 30
0.0
 11
63.904653110359533
 21
29.568649427415629
 31
0.0
  0
LINE
  5
1626C
  8
5-3図補助
 10
64.402713480094036
 20
30.06670979715047
 30
0.0
 11
65.294771751257045
 21
30.958768068312811
 31
0.0
  0
LINE
  5
1626D
  8
5-3図補助
 10
56.240663467078811
 20
22.558825781686568
 30
0.0
 11
57.206787821987419
 21
23.524950136595539
 31
0.0
  0
LINE
  5
1626E
  8
5-3図補助
 10
58.098846093150108
 20
24.417008407758232
 30
0.0
 11
59.88593102070606
 21
26.204093335313839
 31
0.0
  0
LINE
  5
1626F
  8
5-3図補助
 10
62.93605209264117
 20
29.254214407248949
 30
0.0
 11
64.640605753705046
 21
30.958768068312811
 31
0.0
  0
LINE
  5
16270
  8
5-3図補助
 10
56.278752248809958
 20
23.251080560969761
 30
0.0
 11
56.514533042704237
 21
23.48686135486437
 31
0.0
  0
LINE
  5
16271
  8
5-3図補助
 10
57.444680095598429
 20
24.417008407758232
 30
0.0
 11
58.559752654809962
 21
25.53208096696974
 31
0.0
  0
LINE
  5
16272
  8
5-3図補助
 10
58.857358513085281
 20
25.829686825244909
 30
0.0
 11
59.88593102070606
 21
26.858259332865849
 31
0.0
  0
LINE
  5
16273
  8
5-3図補助
 10
62.93605209264117
 20
29.908380404801129
 30
0.0
 11
64.177938855831854
 21
31.150267167991981
 31
0.0
  0
LINE
  5
16274
  8
5-3図補助
 10
56.790514098046422
 20
24.417008407758232
 30
0.0
 11
57.905586657257928
 21
25.53208096696974
 31
0.0
  0
LINE
  5
16275
  8
5-3図補助
 10
58.425953826690609
 20
26.052448136402429
 30
0.0
 11
59.88593102070606
 21
27.512425330417859
 31
0.0
  0
LINE
  5
16276
  8
5-3図補助
 10
62.776510154940993
 20
30.403004464652799
 30
0.0
 11
63.924042322887793
 21
31.550536632599272
 31
0.0
  0
LINE
  5
16277
  8
5-3図補助
 10
56.136348100494402
 20
24.417008407758232
 30
0.0
 11
59.885931020705719
 21
28.166591327969531
 31
0.0
  0
LINE
  5
16278
  8
5-3図補助
 10
62.232078438973552
 20
30.51273874623703
 30
0.0
 11
63.347151371173616
 21
31.627811678437428
 31
0.0
  0
LINE
  5
16279
  8
5-3図補助
 10
55.868697845368303
 20
24.80352415018379
 30
0.0
 11
56.597254662153901
 21
25.53208096696974
 31
0.0
  0
LINE
  5
1627A
  8
5-3図補助
 10
56.687022708782841
 20
25.621849013598329
 30
0.0
 11
58.381370831490393
 21
27.31619713630587
 31
0.0
  0
LINE
  5
1627B
  8
5-3図補助
 10
58.861942085636223
 20
27.79676839045171
 30
0.0
 11
59.885931020705719
 21
28.820757325521551
 31
0.0
  0
LINE
  5
1627C
  8
5-3図補助
 10
61.577912441421539
 20
30.51273874623703
 30
0.0
 11
62.69298537362193
 21
31.627811678437428
 31
0.0
  0
LINE
  5
1627D
  8
5-3図補助
 10
56.687022708782841
 20
26.276015011150179
 30
0.0
 11
57.77435327124342
 21
27.363345573610921
 31
0.0
  0
LINE
  5
1627E
  8
5-3図補助
 10
58.470586664408778
 20
28.059578966776279
 30
0.0
 11
59.885931020705719
 21
29.474923323073391
 31
0.0
  0
LINE
  5
1627F
  8
5-3図補助
 10
60.923746443869533
 20
30.51273874623703
 30
0.0
 11
62.038819376070272
 21
31.627811678437428
 31
0.0
  0
LINE
  5
16280
  8
5-3図補助
 10
56.687022708782841
 20
26.930181008702188
 30
0.0
 11
57.716247067207433
 21
27.959405367126941
 31
0.0
  0
LINE
  5
16281
  8
5-3図補助
 10
57.754308411834501
 20
27.997466711754011
 30
0.0
 11
59.892957014837769
 21
30.13611531475728
 31
0.0
  0
LINE
  5
16282
  8
5-3図補助
 10
60.262554452185462
 20
30.50571275210498
 30
0.0
 11
61.38465337851791
 21
31.627811678437428
 31
0.0
  0
LINE
  5
16283
  8
5-3図補助
 10
56.687022708782841
 20
27.584347006254031
 30
0.0
 11
58.426003669208519
 21
29.32332796667955
 31
0.0
  0
LINE
  5
16284
  8
5-3図補助
 10
58.86216423617909
 20
29.759488533650622
 30
0.0
 11
60.730487380966238
 21
31.627811678437428
 31
0.0
  0
LINE
  5
16285
  8
5-3図補助
 10
56.687022708782841
 20
28.238513003806041
 30
0.0
 11
57.802351813893459
 21
29.353842108917
 31
0.0
  0
LINE
  5
16286
  8
5-3図補助
 10
58.515219502126932
 20
30.06670979715047
 30
0.0
 11
60.076321383413891
 21
31.627811678437428
 31
0.0
  0
LINE
  5
16287
  8
5-3図補助
 10
56.687022708782841
 20
28.892679001358061
 30
0.0
 11
57.66559036012044
 21
29.871246652695469
 31
0.0
  0
LINE
  5
16288
  8
5-3図補助
 10
57.849597956640331
 20
30.05525424921521
 30
0.0
 11
59.422155385862197
 21
31.627811678437428
 31
0.0
  0
LINE
  5
16289
  8
5-3図補助
 10
56.687022708782841
 20
29.546844998909901
 30
0.0
 11
58.108380146677312
 21
30.968202436804201
 31
0.0
  0
LINE
  5
1628A
  8
5-3図補助
 10
58.466352220580042
 20
31.32617451070692
 30
0.0
 11
58.740949399506938
 21
31.600771689634168
 31
0.0
  0
LINE
  5
1628B
  8
5-3図補助
 10
56.687022708782841
 20
30.20101099646174
 30
0.0
 11
57.444779780633901
 21
30.958768068312811
 31
0.0
  0
LINE
  5
1628C
  8
5-3図補助
 10
61.622445594103873
 20
25.978109916056631
 30
0.0
 11
62.41529985050763
 21
26.770964172460051
 31
0.0
  0
LINE
  5
1628D
  8
5-3図補助
 10
60.9682795965522
 20
25.978109916056631
 30
0.0
 11
62.41529985050763
 21
27.425130170012061
 31
0.0
  0
LINE
  5
1628E
  8
5-3図補助
 10
60.496720920867588
 20
26.16071723792404
 30
0.0
 11
61.189942224151672
 21
26.853938541207778
 31
0.0
  0
LINE
  5
1628F
  8
5-3図補助
 10
61.812855748474497
 20
27.476852065530601
 30
0.0
 11
62.41529985050763
 21
28.07929616756407
 31
0.0
  0
LINE
  5
16290
  8
5-3図補助
 10
60.481076882833129
 20
26.79923919744127
 30
0.0
 11
61.157678312170468
 21
27.47584062677841
 31
0.0
  0
LINE
  5
16291
  8
5-3図補助
 10
61.362663356646642
 20
27.680825671254428
 30
0.0
 11
62.184105197139857
 21
28.502267511748322
 31
0.0
  0
LINE
  5
16292
  8
5-3図補助
 10
60.481076882833129
 20
27.453405194992929
 30
0.0
 11
61.533279976692278
 21
28.50560828885224
 31
0.0
  0
LINE
  5
16293
  8
5-3図補助
 10
62.053647146124959
 20
29.025975458285089
 30
0.0
 11
62.340906850078468
 21
29.313235162238609
 31
0.0
  0
LINE
  5
16294
  8
5-3図補助
 10
60.481076882833129
 20
28.10757119254513
 30
0.0
 11
60.879113979140598
 21
28.50560828885224
 31
0.0
  0
LINE
  5
16295
  8
5-3図補助
 10
61.399481148572953
 20
29.025975458285089
 30
0.0
 11
61.994186538351769
 21
29.620680848063579
 31
0.0
  0
LINE
  5
16296
  8
5-3図補助
 10
60.745477830529367
 20
29.0261381377932
 30
0.0
 11
61.340020540799763
 21
29.620680848063579
 31
0.0
  0
LINE
  5
16297
  8
5-3図補助
 10
60.493472571932351
 20
29.428298876747839
 30
0.0
 11
60.673458854148542
 21
29.608285158964371
 31
0.0
  0
LINE
  5
16298
  8
5-3図補助
 10
77.218386305365613
 20
27.836564678727459
 30
0.0
 11
77.814694308865811
 21
28.432872682227998
 31
0.0
  0
LINE
  5
16299
  8
5-3図補助
 10
76.564220307813599
 20
27.836564678727459
 30
0.0
 11
77.654567229194896
 21
28.92691160010909
 31
0.0
  0
LINE
  5
1629A
  8
5-3図補助
 10
75.910054310261572
 20
27.836564678727459
 30
0.0
 11
77.025126869473098
 21
28.951637237938961
 31
0.0
  0
LINE
  5
1629B
  8
5-3図補助
 10
75.255888312709899
 20
27.836564678727459
 30
0.0
 11
76.38044342988681
 21
28.961119795904679
 31
0.0
  0
LINE
  5
1629C
  8
5-3図補助
 10
67.835439898064607
 20
21.070282261634159
 30
0.0
 11
69.262003174411831
 21
22.49684553798172
 31
0.0
  0
LINE
  5
1629D
  8
5-3図補助
 10
74.601722315157915
 20
27.836564678727459
 30
0.0
 11
76.178043342907614
 21
29.412885706477159
 31
0.0
  0
LINE
  5
1629E
  8
5-3図補助
 10
76.683190992888655
 20
29.91803335645837
 30
0.0
 11
77.36833506716178
 21
30.603177430731328
 31
0.0
  0
LINE
  5
1629F
  8
5-3図補助
 10
67.399645129247375
 20
21.288653490369111
 30
0.0
 11
69.425695808506148
 21
23.314704169627731
 31
0.0
  0
LINE
  5
162A0
  8
5-3図補助
 10
73.947556317605873
 20
27.836564678727459
 30
0.0
 11
77.287517205281148
 21
31.176525566402539
 31
0.0
  0
LINE
  5
162A1
  8
5-3図補助
 10
67.399645129247375
 20
21.94281948792095
 30
0.0
 11
69.482654717345241
 21
24.025829076018489
 31
0.0
  0
LINE
  5
162A2
  8
5-3図補助
 10
73.293390320054201
 20
27.836564678727459
 30
0.0
 11
74.4084628792654
 21
28.951637237938961
 31
0.0
  0
LINE
  5
162A3
  8
5-3図補助
 10
74.838965617795139
 20
29.382139976468551
 30
0.0
 11
76.712946218034205
 21
31.256120576707438
 31
0.0
  0
LINE
  5
162A4
  8
5-3図補助
 10
67.399645129247375
 20
22.596985485472789
 30
0.0
 11
69.482654717345241
 21
24.679995073570488
 31
0.0
  0
LINE
  5
162A5
  8
5-3図補助
 10
72.63922432250186
 20
27.836564678727459
 30
0.0
 11
73.754296881713373
 21
28.951637237938961
 31
0.0
  0
LINE
  5
162A6
  8
5-3図補助
 10
74.690372611152299
 20
29.88771296737789
 30
0.0
 11
76.058780220482191
 21
31.256120576707438
 31
0.0
  0
LINE
  5
162A7
  8
5-3図補助
 10
67.399645129247375
 20
23.251151483024628
 30
0.0
 11
69.482654717345241
 21
25.334161071122331
 31
0.0
  0
LINE
  5
162A8
  8
5-3図補助
 10
71.985058324950188
 20
27.836564678727459
 30
0.0
 11
73.1001308841617
 21
28.951637237938961
 31
0.0
  0
LINE
  5
162A9
  8
5-3図補助
 10
74.066527002680942
 20
29.91803335645837
 30
0.0
 11
75.404614222930164
 21
31.256120576707438
 31
0.0
  0
LINE
  5
162AA
  8
5-3図補助
 10
67.399645129247375
 20
23.905317480576649
 30
0.0
 11
67.769258336975355
 21
24.274930688304291
 31
0.0
  0
LINE
  5
162AB
  8
5-3図補助
 10
68.054023660502281
 20
24.559696011831221
 30
0.0
 11
69.482654717345241
 21
25.988327068674181
 31
0.0
  0
LINE
  5
162AC
  8
5-3図補助
 10
71.330892327398175
 20
27.836564678727459
 30
0.0
 11
72.445964886610014
 21
28.951637237938961
 31
0.0
  0
LINE
  5
162AD
  8
5-3図補助
 10
73.412361005129256
 20
29.91803335645837
 30
0.0
 11
74.750448225378506
 21
31.256120576707438
 31
0.0
  0
LINE
  5
162AE
  8
5-3図補助
 10
68.201234667905425
 20
25.361073016786371
 30
0.0
 11
69.482654717345241
 21
26.642493066226191
 31
0.0
  0
LINE
  5
162AF
  8
5-3図補助
 10
70.676726329846133
 20
27.836564678727459
 30
0.0
 11
71.959173634481914
 21
29.11901198336286
 31
0.0
  0
LINE
  5
162B0
  8
5-3図補助
 10
72.758195007577271
 20
29.918033356458551
 30
0.0
 11
74.264859421772627
 21
31.42469777065358
 31
0.0
  0
LINE
  5
162B1
  8
5-3図補助
 10
68.150879824647546
 20
25.96488417108085
 30
0.0
 11
71.986911936259304
 21
29.800916282692441
 31
0.0
  0
LINE
  5
162B2
  8
5-3図補助
 10
72.054747620483596
 20
29.8687519669169
 30
0.0
 11
74.171457196830062
 21
31.98546154326268
 31
0.0
  0
LINE
  5
162B3
  8
5-3図補助
 10
68.100524981389995
 20
26.568695325374978
 30
0.0
 11
73.605670283539681
 21
32.073840627524334
 31
0.0
  0
LINE
  5
162B4
  8
5-3図補助
 10
68.050170138132131
 20
27.172506479669121
 30
0.0
 11
69.829300896401975
 21
28.951637237938961
 31
0.0
  0
LINE
  5
162B5
  8
5-3図補助
 10
70.589951644071462
 20
29.712287985608121
 30
0.0
 11
72.133784235170452
 21
31.256120576707438
 31
0.0
  0
LINE
  5
162B6
  8
5-3図補助
 10
72.458383408415941
 20
31.580719749952909
 30
0.0
 11
72.95150428598734
 21
32.073840627524334
 31
0.0
  0
LINE
  5
162B7
  8
5-3図補助
 10
67.999815294874594
 20
27.776317633963249
 30
0.0
 11
69.175134898850303
 21
28.951637237938961
 31
0.0
  0
LINE
  5
162B8
  8
5-3図補助
 10
70.141531017369545
 20
29.918033356458551
 30
0.0
 11
71.47961823761878
 21
31.256120576707438
 31
0.0
  0
LINE
  5
162B9
  8
5-3図補助
 10
67.994790991374458
 20
28.42545932801513
 30
0.0
 11
68.520968901298275
 21
28.951637237938961
 31
0.0
  0
LINE
  5
162BA
  8
5-3図補助
 10
69.487365019817872
 20
29.91803335645837
 30
0.0
 11
70.825452240067108
 21
31.256120576707438
 31
0.0
  0
LINE
  5
162BB
  8
5-3図補助
 10
69.110689095635081
 20
30.195523429827428
 30
0.0
 11
70.171286242515095
 21
31.256120576707438
 31
0.0
  0
LINE
  5
162BC
  8
5-3図補助
 10
69.110689095635081
 20
30.849689427379442
 30
0.0
 11
69.517120244963067
 21
31.256120576707438
 31
0.0
  0
LINE
  5
162BD
  8
5-3図補助
 10
76.6384588431239
 20
21.369143238518649
 30
0.0
 11
77.814694308865811
 21
22.545378704260731
 31
0.0
  0
LINE
  5
162BE
  8
5-3図補助
 10
75.984292845571915
 20
21.369143238518649
 30
0.0
 11
77.814694308865811
 21
23.199544701812581
 31
0.0
  0
LINE
  5
162BF
  8
5-3図補助
 10
75.330126848020242
 20
21.369143238518649
 30
0.0
 11
77.634610186788706
 21
23.673626577287301
 31
0.0
  0
LINE
  5
162C0
  8
5-3図補助
 10
74.675960850468201
 20
21.369143238518649
 30
0.0
 11
76.980444189237033
 21
23.673626577287301
 31
0.0
  0
LINE
  5
162C1
  8
5-3図補助
 10
74.021794852916543
 20
21.369143238518649
 30
0.0
 11
76.32627819168502
 21
23.673626577287301
 31
0.0
  0
LINE
  5
162C2
  8
5-3図補助
 10
73.367628855364529
 20
21.369143238518649
 30
0.0
 11
75.672112194133021
 21
23.673626577287301
 31
0.0
  0
LINE
  5
162C3
  8
5-3図補助
 10
72.713462857812857
 20
21.369143238518649
 30
0.0
 11
75.053053175056704
 21
23.70873355576267
 31
0.0
  0
LINE
  5
162C4
  8
5-3図補助
 10
75.686989806705952
 20
24.34267018741226
 30
0.0
 11
76.103650342478119
 21
24.75933072318443
 31
0.0
  0
LINE
  5
162C5
  8
5-3図補助
 10
72.059296860260503
 20
21.369143238518649
 30
0.0
 11
75.964056613761187
 21
25.273902992019341
 31
0.0
  0
LINE
  5
162C6
  8
5-3図補助
 10
76.669064349008551
 20
25.978910727266872
 30
0.0
 11
76.921175014246984
 21
26.231021392505141
 31
0.0
  0
LINE
  5
162C7
  8
5-3図補助
 10
71.40513086270883
 20
21.369143238518649
 30
0.0
 11
75.345053930121836
 21
25.309066305931669
 31
0.0
  0
LINE
  5
162C8
  8
5-3図補助
 10
76.014097540246468
 20
25.978109916056631
 30
0.0
 11
76.79137077909698
 21
26.755383154907321
 31
0.0
  0
LINE
  5
162C9
  8
5-3図補助
 10
70.75111051673926
 20
21.36928889010111
 30
0.0
 11
73.061882318387035
 21
23.680060691749041
 31
0.0
  0
LINE
  5
162CA
  8
5-3図補助
 10
73.270274776933448
 20
23.888453150295302
 30
0.0
 11
74.917467962087841
 21
25.535646335450021
 31
0.0
  0
LINE
  5
162CB
  8
5-3図補助
 10
75.359931542694113
 20
25.978109916056631
 30
0.0
 11
76.177651593511001
 21
26.795829966872841
 31
0.0
  0
LINE
  5
162CC
  8
5-3図補助
 10
70.254521714926824
 20
21.526866085841011
 30
0.0
 11
72.401282206373622
 21
23.673626577287301
 31
0.0
  0
LINE
  5
162CD
  8
5-3図補助
 10
73.063524094738597
 20
24.33586846565262
 30
0.0
 11
75.523485595959329
 21
26.795829966872841
 31
0.0
  0
LINE
  5
162CE
  8
5-3図補助
 10
69.949732695892664
 20
21.8762430643587
 30
0.0
 11
71.747116208821609
 21
23.673626577287301
 31
0.0
  0
LINE
  5
162CF
  8
5-3図補助
 10
72.416159818946568
 20
24.34267018741226
 30
0.0
 11
74.972801002067442
 21
26.89931137053312
 31
0.0
  0
LINE
  5
162D0
  8
5-3図補助
 10
69.854620958620131
 20
22.43529732463767
 30
0.0
 11
71.092950211269937
 21
23.673626577287301
 31
0.0
  0
LINE
  5
162D1
  8
5-3図補助
 10
71.951076961666004
 20
24.531753327683731
 30
0.0
 11
72.728389939913797
 21
25.309066305931669
 31
0.0
  0
LINE
  5
162D2
  8
5-3図補助
 10
73.247216799536801
 20
25.827893165554681
 30
0.0
 11
74.818022981501414
 21
27.398699347518939
 31
0.0
  0
LINE
  5
162D3
  8
5-3図補助
 10
69.854620958620131
 20
23.08946332218968
 30
0.0
 11
70.438784213717923
 21
23.673626577287301
 31
0.0
  0
LINE
  5
162D4
  8
5-3図補助
 10
72.743267552486714
 20
25.978109916056631
 30
0.0
 11
74.230031213427907
 21
27.4648735769978
 31
0.0
  0
LINE
  5
162D5
  8
5-3図補助
 10
71.097492614217032
 20
24.9865009753386
 30
0.0
 11
71.477954979705515
 21
25.36696334082691
 31
0.0
  0
LINE
  5
162D6
  8
5-3図補助
 10
72.08910155493507
 20
25.978109916056631
 30
0.0
 11
72.906821605751261
 21
26.795829966872841
 31
0.0
  0
LINE
  5
162D7
  8
5-3図補助
 10
73.276708891395202
 20
27.165717252516771
 30
0.0
 11
73.575865215876235
 21
27.4648735769978
 31
0.0
  0
LINE
  5
162D8
  8
5-3図補助
 10
70.171186557479615
 20
24.714360916153019
 30
0.0
 11
72.252655608199603
 21
26.795829966872841
 31
0.0
  0
LINE
  5
162D9
  8
5-3図補助
 10
69.780227958190963
 20
24.977568314416398
 30
0.0
 11
71.798878756611131
 21
26.996219112836709
 31
0.0
  0
LINE
  5
162DA
  8
5-3図補助
 10
69.780227958190963
 20
25.631734311968241
 30
0.0
 11
70.126603562279371
 21
25.978109916056631
 31
0.0
  0
LINE
  5
162DB
  8
5-3図補助
 10
70.306680650054673
 20
26.158187003831781
 30
0.0
 11
71.538057080528489
 21
27.38956343430592
 31
0.0
  0
LINE
  5
162DC
  8
5-3図補助
 10
70.37537320075333
 20
26.881045552082259
 30
0.0
 11
70.884863005322373
 21
27.390535356651661
 31
0.0
  0
LINE
  5
162DD
  8
5-3図補助
 10
81.651125350757695
 20
21.148481765736811
 30
0.0
 11
82.023996899342166
 21
21.521353314321821
 31
0.0
  0
LINE
  5
162DE
  8
5-3図補助
 10
80.996959353205298
 20
21.148481765736811
 30
0.0
 11
82.023996899342166
 21
22.17551931187349
 31
0.0
  0
LINE
  5
162DF
  8
5-3図補助
 10
80.684919174230032
 20
21.49060758431337
 30
0.0
 11
82.023996899342166
 21
22.829685309425511
 31
0.0
  0
LINE
  5
162E0
  8
5-3図補助
 10
80.684919174230032
 20
22.14477358186522
 30
0.0
 11
82.023996899342166
 21
23.48385130697735
 31
0.0
  0
LINE
  5
162E1
  8
5-3図補助
 10
80.684919174230032
 20
22.79893957941723
 30
0.0
 11
82.023996899342166
 21
24.13801730452953
 31
0.0
  0
LINE
  5
162E2
  8
5-3図補助
 10
80.684919174230032
 20
23.453105576969069
 30
0.0
 11
82.023996899342166
 21
24.79218330208122
 31
0.0
  0
LINE
  5
162E3
  8
5-3図補助
 10
82.543233091448684
 20
25.31141949418739
 30
0.0
 11
82.767928762327571
 21
25.536115165066601
 31
0.0
  0
LINE
  5
162E4
  8
5-3図補助
 10
79.138554806041299
 20
22.560907206332178
 30
0.0
 11
82.767871475053454
 21
26.190223875344341
 31
0.0
  0
LINE
  5
162E5
  8
5-3図補助
 10
78.899482207413513
 20
22.976000605256068
 30
0.0
 11
82.521464347425564
 21
26.59798274526829
 31
0.0
  0
LINE
  5
162E6
  8
5-3図補助
 10
78.899482207413513
 20
23.630166602808082
 30
0.0
 11
82.236925396696307
 21
26.96760979209105
 31
0.0
  0
LINE
  5
162E7
  8
5-3図補助
 10
78.899482207413513
 20
24.284332600359932
 30
0.0
 11
82.023996899342166
 21
27.408847292288922
 31
0.0
  0
LINE
  5
162E8
  8
5-3図補助
 10
78.899482207413513
 20
24.9384985979116
 30
0.0
 11
79.223284883981734
 21
25.262301274480169
 31
0.0
  0
LINE
  5
162E9
  8
5-3図補助
 10
80.359317555283084
 20
26.398333945781498
 30
0.0
 11
82.023996899342166
 21
28.063013289840931
 31
0.0
  0
LINE
  5
162EA
  8
5-3図補助
 10
82.400156898727374
 20
28.439173289225799
 30
0.0
 11
82.613592729005745
 21
28.652609119504199
 31
0.0
  0
LINE
  5
162EB
  8
5-3図補助
 10
80.684919174230032
 20
27.37810156228047
 30
0.0
 11
82.619142761469575
 21
29.312325149520031
 31
0.0
  0
LINE
  5
162EC
  8
5-3図補助
 10
80.684919174230032
 20
28.03226755983232
 30
0.0
 11
82.276516760054619
 21
29.623865145656762
 31
0.0
  0
LINE
  5
162ED
  8
5-3図補助
 10
80.431357144941131
 20
28.432871528095429
 30
0.0
 11
82.023996899342166
 21
30.02551128249663
 31
0.0
  0
LINE
  5
162EE
  8
5-3図補助
 10
79.777942876055846
 20
28.43362325676198
 30
0.0
 11
82.023996899342166
 21
30.679677280048299
 31
0.0
  0
LINE
  5
162EF
  8
5-3図補助
 10
79.169944570411332
 20
28.479790948669478
 30
0.0
 11
80.31318765806148
 21
29.623034036319631
 31
0.0
  0
LINE
  5
162F0
  8
5-3図補助
 10
80.684919174230032
 20
29.994765552488179
 30
0.0
 11
82.023996899342166
 21
31.33384327760032
 31
0.0
  0
LINE
  5
162F1
  8
5-3図補助
 10
79.048268827836196
 20
29.01228120364603
 30
0.0
 11
79.659021660509467
 21
29.623034036319631
 31
0.0
  0
LINE
  5
162F2
  8
5-3図補助
 10
80.684919174230032
 20
30.648931550039858
 30
0.0
 11
81.982796745700213
 21
31.946809121510199
 31
0.0
  0
LINE
  5
162F3
  8
5-3図補助
 10
80.684919174230032
 20
31.303097547592039
 30
0.0
 11
81.458015442418528
 21
32.076193815780378
 31
0.0
  0
LINE
  5
162F4
  8
5-3図補助
 10
90.041435918868785
 20
21.034634365673259
 30
0.0
 11
90.504822491721384
 21
21.498020938525571
 31
0.0
  0
LINE
  5
162F5
  8
5-3図補助
 10
89.55688761093883
 20
21.20425205529536
 30
0.0
 11
90.504822491721384
 21
22.15218693607758
 31
0.0
  0
LINE
  5
162F6
  8
5-3図補助
 10
89.170789064834153
 20
21.472319506742359
 30
0.0
 11
90.504822491721384
 21
22.80635293362959
 31
0.0
  0
LINE
  5
162F7
  8
5-3図補助
 10
88.869271696989159
 20
21.82496813644936
 30
0.0
 11
90.504822491721384
 21
23.460518931181429
 31
0.0
  0
LINE
  5
162F8
  8
5-3図補助
 10
87.538619328724764
 20
21.148481765736811
 30
0.0
 11
87.975453661919474
 21
21.58531609893171
 31
0.0
  0
LINE
  5
162F9
  8
5-3図補助
 10
88.646855325794405
 20
22.25671776280663
 30
0.0
 11
90.437808057272434
 21
24.04767049428429
 31
0.0
  0
LINE
  5
162FA
  8
5-3図補助
 10
86.88445333117275
 20
21.148481765736811
 30
0.0
 11
87.975453661919474
 21
22.239482096483549
 31
0.0
  0
LINE
  5
162FB
  8
5-3図補助
 10
88.488656939110953
 20
22.752685373674829
 30
0.0
 11
89.828156061955838
 21
24.092184496519931
 31
0.0
  0
LINE
  5
162FC
  8
5-3図補助
 10
86.561982936377504
 20
21.480177368493589
 30
0.0
 11
87.975453661919474
 21
22.893648094035392
 31
0.0
  0
LINE
  5
162FD
  8
5-3図補助
 10
88.408421274997878
 20
23.326615707113799
 30
0.0
 11
89.417000936036189
 21
24.33519536815211
 31
0.0
  0
LINE
  5
162FE
  8
5-3図補助
 10
86.561982936377504
 20
22.134343366045439
 30
0.0
 11
87.975453661919474
 21
23.547814091587409
 31
0.0
  0
LINE
  5
162FF
  8
5-3図補助
 10
88.364305818544182
 20
23.936666248212099
 30
0.0
 11
89.253368658553242
 21
24.825729088221308
 31
0.0
  0
LINE
  5
16300
  8
5-3図補助
 10
86.561982936377504
 20
22.788509363597448
 30
0.0
 11
87.975453661919474
 21
24.201980089139251
 31
0.0
  0
LINE
  5
16301
  8
5-3図補助
 10
88.364305818544182
 20
24.590832245763941
 30
0.0
 11
89.240138386602496
 21
25.466664813822401
 31
0.0
  0
LINE
  5
16302
  8
5-3図補助
 10
89.902613117784341
 20
26.129139545004271
 30
0.0
 11
90.207249870440023
 21
26.433776297659978
 31
0.0
  0
LINE
  5
16303
  8
5-3図補助
 10
84.440876872376762
 20
21.32156929714872
 30
0.0
 11
85.51653980112043
 21
22.39723222589171
 31
0.0
  0
LINE
  5
16304
  8
5-3図補助
 10
86.561982936377504
 20
23.442675361149458
 30
0.0
 11
87.975453661919474
 21
24.856146086691091
 31
0.0
  0
LINE
  5
16305
  8
5-3図補助
 10
88.364305818544182
 20
25.244998243315791
 30
0.0
 11
89.240138386602496
 21
26.12083081137407
 31
0.0
  0
LINE
  5
16306
  8
5-3図補助
 10
89.248447120232683
 20
26.129139545004271
 30
0.0
 11
90.207249870440023
 21
27.087942295211828
 31
0.0
  0
LINE
  5
16307
  8
5-3図補助
 10
83.564001545863945
 20
21.09885996818721
 30
0.0
 11
85.927788958700177
 21
23.46264738102396
 31
0.0
  0
LINE
  5
16308
  8
5-3図補助
 10
86.561982936377504
 20
24.096841358701312
 30
0.0
 11
87.975453661919474
 21
25.510312084243111
 31
0.0
  0
LINE
  5
16309
  8
5-3図補助
 10
88.353958950777283
 20
25.88881737310091
 30
0.0
 11
89.932368342930246
 21
27.46722676525351
 31
0.0
  0
LINE
  5
1630A
  8
5-3図補助
 10
83.437467624883794
 20
21.626492044759079
 30
0.0
 11
85.966837074250435
 21
24.155861494125901
 31
0.0
  0
LINE
  5
1630B
  8
5-3図補助
 10
86.561982936377504
 20
24.751007356253151
 30
0.0
 11
89.278202345377878
 21
27.46722676525351
 31
0.0
  0
LINE
  5
1630C
  8
5-3図補助
 10
83.437467624883794
 20
22.280658042311259
 30
0.0
 11
85.966837074250435
 21
24.81002749167774
 31
0.0
  0
LINE
  5
1630D
  8
5-3図補助
 10
86.561982936377504
 20
25.405173353805161
 30
0.0
 11
88.624036347826191
 21
27.46722676525351
 31
0.0
  0
LINE
  5
1630E
  8
5-3図補助
 10
89.706088911344096
 20
28.549279328771402
 30
0.0
 11
89.793965404512647
 21
28.63715582194013
 31
0.0
  0
LINE
  5
1630F
  8
5-3図補助
 10
83.437467624883794
 20
22.934824039863109
 30
0.0
 11
85.966837074250435
 21
25.464193489229579
 31
0.0
  0
LINE
  5
16310
  8
5-3図補助
 10
86.513506429465025
 20
26.01086284444435
 30
0.0
 11
88.052887601887633
 21
27.550244016866959
 31
0.0
  0
LINE
  5
16311
  8
5-3図補助
 10
89.010604689139896
 20
28.507961104119229
 30
0.0
 11
89.835283629165147
 21
29.332640044144309
 31
0.0
  0
LINE
  5
16312
  8
5-3図補助
 10
83.437467624883794
 20
23.588990037415119
 30
0.0
 11
83.77844724137961
 21
23.9299696539106
 31
0.0
  0
LINE
  5
16313
  8
5-3図補助
 10
84.999725590413192
 20
25.151248002944531
 30
0.0
 11
87.975453661919474
 21
28.12697607445083
 31
0.0
  0
LINE
  5
16314
  8
5-3図補助
 10
88.356438691588224
 20
28.507961104119229
 30
0.0
 11
89.545849844134452
 21
29.697372256665592
 31
0.0
  0
LINE
  5
16315
  8
5-3図補助
 10
84.999725590413192
 20
25.805414000496189
 30
0.0
 11
88.891683846582396
 21
29.697372256665432
 31
0.0
  0
LINE
  5
16316
  8
5-3図補助
 10
84.594946917023435
 20
26.05480132465831
 30
0.0
 11
86.007372357618465
 21
27.46722676525351
 31
0.0
  0
LINE
  5
16317
  8
5-3図補助
 10
86.561982936377504
 20
28.02183734401288
 30
0.0
 11
88.237760756280096
 21
29.69761516391511
 31
0.0
  0
LINE
  5
16318
  8
5-3図補助
 10
83.940780919471109
 20
26.05480132465831
 30
0.0
 11
85.35320636006648
 21
27.46722676525351
 31
0.0
  0
LINE
  5
16319
  8
5-3図補助
 10
86.378577339362565
 20
28.492597744549599
 30
0.0
 11
87.975453661919474
 21
30.089474067106341
 31
0.0
  0
LINE
  5
1631A
  8
5-3図補助
 10
83.515565373725437
 20
26.28375177646447
 30
0.0
 11
84.870711753290394
 21
27.638898156029111
 31
0.0
  0
LINE
  5
1631B
  8
5-3図補助
 10
85.739774701380185
 20
28.507961104119229
 30
0.0
 11
87.975453661919474
 21
30.743640064658191
 31
0.0
  0
LINE
  5
1631C
  8
5-3図補助
 10
83.511861244878006
 20
26.934213645168729
 30
0.0
 11
84.854254668694054
 21
28.276607068984749
 31
0.0
  0
LINE
  5
1631D
  8
5-3図補助
 10
85.082293005124299
 20
28.504645405415339
 30
0.0
 11
86.275019856374698
 21
29.697372256665432
 31
0.0
  0
LINE
  5
1631E
  8
5-3図補助
 10
86.561982936377504
 20
29.984335336668401
 30
0.0
 11
87.975453661919474
 21
31.397806062210201
 31
0.0
  0
LINE
  5
1631F
  8
5-3図補助
 10
83.511861244878006
 20
27.588379642720749
 30
0.0
 11
85.688504130868324
 21
29.765022528710709
 31
0.0
  0
LINE
  5
16320
  8
5-3図補助
 10
86.561982936377504
 20
30.638501334220241
 30
0.0
 11
87.868561709280584
 21
31.945080107123001
 31
0.0
  0
LINE
  5
16321
  8
5-3図補助
 10
83.511861244878006
 20
28.242545640272589
 30
0.0
 11
85.594870832975204
 21
30.325555228369939
 31
0.0
  0
LINE
  5
16322
  8
5-3図補助
 10
86.561982936377504
 20
31.292667331772261
 30
0.0
 11
87.271171200039845
 21
32.001855595434073
 31
0.0
  0
LINE
  5
16323
  8
5-3図補助
 10
83.511861244878006
 20
28.896711637824431
 30
0.0
 11
85.594870832975204
 21
30.979721225921789
 31
0.0
  0
LINE
  5
16324
  8
5-3図補助
 10
84.138882103335305
 20
30.17789849383373
 30
0.0
 11
85.422842498475831
 21
31.461858888973921
 31
0.0
  0
LINE
  5
16325
  8
5-3図補助
 10
84.181400107434257
 20
30.874582495484351
 30
0.0
 11
84.788306037951102
 21
31.481488426001562
 31
0.0
  0
LINE
  5
16326
  8
5-3図補助
 10
102.22762378326161
 20
21.445834274131428
 30
0.0
 11
102.33334301644619
 21
21.551553507316012
 31
0.0
  0
LINE
  5
16327
  8
5-3図補助
 10
101.57345778570961
 20
21.445834274131428
 30
0.0
 11
102.33334301644619
 21
22.205719504867851
 31
0.0
  0
LINE
  5
16328
  8
5-3図補助
 10
100.91929178815759
 20
21.445834274131428
 30
0.0
 11
102.33334301644619
 21
22.859885502419861
 31
0.0
  0
LINE
  5
16329
  8
5-3図補助
 10
100.26512579060589
 20
21.445834274131428
 30
0.0
 11
102.33334301644619
 21
23.514051499971711
 31
0.0
  0
LINE
  5
1632A
  8
5-3図補助
 10
99.610959793053894
 20
21.445834274131428
 30
0.0
 11
102.1384581658497
 21
23.973332646927378
 31
0.0
  0
LINE
  5
1632B
  8
5-3図補助
 10
98.96465908279076
 20
21.453699561420439
 30
0.0
 11
101.484292168298
 21
23.973332646927378
 31
0.0
  0
LINE
  5
1632C
  8
5-3図補助
 10
98.4888060251524
 20
21.632012501333769
 30
0.0
 11
100.8301261707456
 21
23.973332646927378
 31
0.0
  0
LINE
  5
1632D
  8
5-3図補助
 10
98.201677157551615
 20
21.99904963128531
 30
0.0
 11
100.175960173194
 21
23.973332646927549
 31
0.0
  0
LINE
  5
1632E
  8
5-3図補助
 10
98.059302718612855
 20
22.51084118989856
 30
0.0
 11
99.707258241182245
 21
24.1587967124673
 31
0.0
  0
LINE
  5
1632F
  8
5-3図補助
 10
97.997380669438854
 20
23.10308513827626
 30
0.0
 11
99.620055581122912
 21
24.72576004995997
 31
0.0
  0
LINE
  5
16330
  8
5-3図補助
 10
97.935458620265223
 20
23.695329086654301
 30
0.0
 11
99.536933215705332
 21
25.29680368209474
 31
0.0
  0
LINE
  5
16331
  8
5-3図補助
 10
97.873536571091236
 20
24.287573035032519
 30
0.0
 11
99.453810850288079
 21
25.86784731422917
 31
0.0
  0
LINE
  5
16332
  8
5-3図補助
 10
95.179492686364625
 20
22.247695147857559
 30
0.0
 11
95.930732445846644
 21
22.998934907339919
 31
0.0
  0
LINE
  5
16333
  8
5-3図補助
 10
97.811614521917633
 20
24.87981698341056
 30
0.0
 11
99.370688484870513
 21
26.438890946363951
 31
0.0
  0
LINE
  5
16334
  8
5-3図補助
 10
101.068067913885
 20
28.136270375378128
 30
0.0
 11
101.7381971543184
 21
28.806399615811891
 31
0.0
  0
LINE
  5
16335
  8
5-3図補助
 10
93.730272160486507
 20
21.452640619531302
 30
0.0
 11
96.45627925429838
 21
24.178647713343171
 31
0.0
  0
LINE
  5
16336
  8
5-3図補助
 10
97.749692472743646
 20
25.47206093178843
 30
0.0
 11
99.28756611945326
 21
27.009934578498381
 31
0.0
  0
LINE
  5
16337
  8
5-3図補助
 10
100.4139019163333
 20
28.136270375378128
 30
0.0
 11
101.6969761831831
 21
29.41934464222825
 31
0.0
  0
LINE
  5
16338
  8
5-3図補助
 10
92.994961970177911
 20
21.371496426774709
 30
0.0
 11
96.390852895280474
 21
24.767387351877598
 31
0.0
  0
LINE
  5
16339
  8
5-3図補助
 10
97.687770423569674
 20
26.064304880166471
 30
0.0
 11
99.204443754036035
 21
27.580978210632821
 31
0.0
  0
LINE
  5
1633A
  8
5-3図補助
 10
99.759735918781317
 20
28.136270375378128
 30
0.0
 11
101.1721613593763
 21
29.548695815973499
 31
0.0
  0
LINE
  5
1633B
  8
5-3図補助
 10
92.340795972625557
 20
21.371496426774709
 30
0.0
 11
95.506408488184235
 21
24.537108942333042
 31
0.0
  0
LINE
  5
1633C
  8
5-3図補助
 10
97.625848374395702
 20
26.656548828544508
 30
0.0
 11
100.5179953618247
 21
29.548695815973499
 31
0.0
  0
LINE
  5
1633D
  8
5-3図補助
 10
91.686629975073885
 20
21.371496426774709
 30
0.0
 11
95.046168177803139
 21
24.731034629503959
 31
0.0
  0
LINE
  5
1633E
  8
5-3図補助
 10
97.563926325221715
 20
27.248792776922549
 30
0.0
 11
99.863829364272675
 21
29.548695815973499
 31
0.0
  0
LINE
  5
1633F
  8
5-3図補助
 10
100.68154941508951
 20
30.366415866790209
 30
0.0
 11
101.44062453303739
 21
31.12549098473826
 31
0.0
  0
LINE
  5
16340
  8
5-3図補助
 10
91.397541594694218
 20
21.736574043946881
 30
0.0
 11
95.042808528756765
 21
25.38184097800924
 31
0.0
  0
LINE
  5
16341
  8
5-3図補助
 10
95.567092807702977
 20
25.906125256955441
 30
0.0
 11
96.307493253440072
 21
26.646525702692561
 31
0.0
  0
LINE
  5
16342
  8
5-3図補助
 10
97.502004276047771
 20
27.84103672530059
 30
0.0
 11
99.209663366720662
 21
29.548695815973499
 31
0.0
  0
LINE
  5
16343
  8
5-3図補助
 10
100.0739061073858
 20
30.412938556638519
 30
0.0
 11
101.44062453303739
 21
31.77965698229027
 31
0.0
  0
LINE
  5
16344
  8
5-3図補助
 10
91.397541594694218
 20
22.39074004149872
 30
0.0
 11
93.113258985313237
 21
24.106457432118098
 31
0.0
  0
LINE
  5
16345
  8
5-3図補助
 10
93.629337803214781
 20
24.622536250019291
 30
0.0
 11
96.19697764558569
 21
27.1901760923902
 31
0.0
  0
LINE
  5
16346
  8
5-3図補助
 10
97.143071928573605
 20
28.136270375378128
 30
0.0
 11
98.871954292367064
 21
29.86515273917157
 31
0.0
  0
LINE
  5
16347
  8
5-3図補助
 10
99.952760187502264
 20
30.94595863430677
 30
0.0
 11
101.1573335893216
 21
32.150532036126179
 31
0.0
  0
LINE
  5
16348
  8
5-3図補助
 10
91.397541594694218
 20
23.044906039050741
 30
0.0
 11
92.400306049927764
 21
24.04767049428429
 31
0.0
  0
LINE
  5
16349
  8
5-3図補助
 10
93.629337803214781
 20
25.276702247571301
 30
0.0
 11
95.596847659858895
 21
27.24421210421545
 31
0.0
  0
LINE
  5
1634A
  8
5-3図補助
 10
96.488905931021947
 20
28.136270375378128
 30
0.0
 11
98.788831926949854
 21
30.436196371306181
 31
0.0
  0
LINE
  5
1634B
  8
5-3図補助
 10
99.952760187502264
 20
31.60012463185895
 30
0.0
 11
100.50316759176999
 21
32.150532036126179
 31
0.0
  0
LINE
  5
1634C
  8
5-3図補助
 10
91.397541594694218
 20
23.69907203660258
 30
0.0
 11
91.746140052376063
 21
24.04767049428429
 31
0.0
  0
LINE
  5
1634D
  8
5-3図補助
 10
93.536365218118704
 20
25.83789566002693
 30
0.0
 11
94.942681662307237
 21
27.24421210421545
 31
0.0
  0
LINE
  5
1634E
  8
5-3図補助
 10
95.834739933469606
 20
28.136270375378128
 30
0.0
 11
98.705709561532586
 21
31.007240003440781
 31
0.0
  0
LINE
  5
1634F
  8
5-3図補助
 10
92.950428817495236
 20
25.906125256955441
 30
0.0
 11
94.288515664755224
 21
27.24421210421545
 31
0.0
  0
LINE
  5
16350
  8
5-3図補助
 10
95.180573935917934
 20
28.136270375378128
 30
0.0
 11
96.592999376513291
 21
29.548695815973499
 31
0.0
  0
LINE
  5
16351
  8
5-3図補助
 10
97.254316079352193
 20
30.210012518812409
 30
0.0
 11
98.622587196115376
 21
31.578283635575549
 31
0.0
  0
LINE
  5
16352
  8
5-3図補助
 10
92.315213493114399
 20
25.92507593012661
 30
0.0
 11
93.634349667203239
 21
27.24421210421545
 31
0.0
  0
LINE
  5
16353
  8
5-3図補助
 10
94.526407938365907
 20
28.136270375378128
 30
0.0
 11
95.938833378961277
 21
29.548695815973499
 31
0.0
  0
LINE
  5
16354
  8
5-3図補助
 10
97.192394030178235
 20
30.80225646719045
 30
0.0
 11
98.477441762230256
 21
32.087304199242141
 31
0.0
  0
LINE
  5
16355
  8
5-3図補助
 10
92.141473457679595
 20
26.405501892243841
 30
0.0
 11
92.980183669651566
 21
27.24421210421545
 31
0.0
  0
LINE
  5
16356
  8
5-3図補助
 10
93.872241940814234
 20
28.136270375378128
 30
0.0
 11
95.284667381409264
 21
29.548695815973499
 31
0.0
  0
LINE
  5
16357
  8
5-3図補助
 10
97.130471981004604
 20
31.39450041556815
 30
0.0
 11
97.886503601562296
 21
32.150532036126179
 31
0.0
  0
LINE
  5
16358
  8
5-3図補助
 10
92.166459625924773
 20
27.084654058041021
 30
0.0
 11
92.301031503854347
 21
27.219225935970108
 31
0.0
  0
LINE
  5
16359
  8
5-3図補助
 10
93.218075943262193
 20
28.136270375378128
 30
0.0
 11
94.630501383857577
 21
29.548695815973499
 31
0.0
  0
LINE
  5
1635A
  8
5-3図補助
 10
97.068549931830646
 20
31.986744363946361
 30
0.0
 11
97.232337604010283
 21
32.150532036126179
 31
0.0
  0
LINE
  5
1635B
  8
5-3図補助
 10
92.563909945710535
 20
28.136270375378128
 30
0.0
 11
93.976335386305564
 21
29.548695815973499
 31
0.0
  0
LINE
  5
1635C
  8
5-3図補助
 10
91.909743948158209
 20
28.136270375378128
 30
0.0
 11
93.322169388753565
 21
29.548695815973499
 31
0.0
  0
LINE
  5
1635D
  8
5-3図補助
 10
91.332401987851426
 20
28.213094412623061
 30
0.0
 11
92.668003391201864
 21
29.548695815973499
 31
0.0
  0
LINE
  5
1635E
  8
5-3図補助
 10
91.248754974271165
 20
28.783613396594799
 30
0.0
 11
92.013837393649879
 21
29.548695815973499
 31
0.0
  0
LINE
  5
1635F
  8
5-3図補助
 10
112.9916326254763
 20
21.743187155515461
 30
0.0
 11
113.4179310586205
 21
22.169485588659509
 31
0.0
  0
LINE
  5
16360
  8
5-3図補助
 10
112.3374666279243
 20
21.743187155515461
 30
0.0
 11
113.3947945597865
 21
22.8005150873777
 31
0.0
  0
LINE
  5
16361
  8
5-3図補助
 10
111.6833006303723
 20
21.743187155515461
 30
0.0
 11
113.2390407228087
 21
23.298927247951859
 31
0.0
  0
LINE
  5
16362
  8
5-3図補助
 10
111.0291346328206
 20
21.743187155515461
 30
0.0
 11
113.0244943172008
 21
23.73854683989585
 31
0.0
  0
LINE
  5
16363
  8
5-3図補助
 10
110.3749686352689
 20
21.743187155515461
 30
0.0
 11
112.8099070080808
 21
24.17812552832768
 31
0.0
  0
LINE
  5
16364
  8
5-3図補助
 10
109.7208026377166
 20
21.743187155515461
 30
0.0
 11
112.59531969896079
 21
24.61770421675967
 31
0.0
  0
LINE
  5
16365
  8
5-3図補助
 10
113.73506429846459
 20
25.757448816263508
 30
0.0
 11
114.01307692074759
 21
26.035461438546822
 31
0.0
  0
LINE
  5
16366
  8
5-3図補助
 10
109.0666366401649
 20
21.743187155515461
 30
0.0
 11
112.3807323898408
 21
25.057282905191659
 31
0.0
  0
LINE
  5
16367
  8
5-3図補助
 10
113.08089830091259
 20
25.757448816263508
 30
0.0
 11
114.01307692074759
 21
26.689627436098672
 31
0.0
  0
LINE
  5
16368
  8
5-3図補助
 10
108.4124706426126
 20
21.743187155515461
 30
0.0
 11
110.8696245065576
 21
24.20034101946046
 31
0.0
  0
LINE
  5
16369
  8
5-3図補助
 10
111.0928694965169
 20
24.423586009419768
 30
0.0
 11
112.20939260876121
 21
25.540109121663718
 31
0.0
  0
LINE
  5
1636A
  8
5-3図補助
 10
112.420840436739
 20
25.75155694964176
 30
0.0
 11
113.69048130326409
 21
27.02119781616679
 31
0.0
  0
LINE
  5
1636B
  8
5-3図補助
 10
107.7583046450609
 20
21.743187155515461
 30
0.0
 11
110.21146442452159
 21
24.196346934976209
 31
0.0
  0
LINE
  5
1636C
  8
5-3図補助
 10
110.96941675424701
 20
24.95429926470214
 30
0.0
 11
113.03631530571241
 21
27.02119781616679
 31
0.0
  0
LINE
  5
1636D
  8
5-3図補助
 10
107.1041386475092
 20
21.743187155515461
 30
0.0
 11
109.5572984269693
 21
24.196346934976209
 31
0.0
  0
LINE
  5
1636E
  8
5-3図補助
 10
110.8239628596377
 20
25.463011367644661
 30
0.0
 11
112.38214930816
 21
27.02119781616679
 31
0.0
  0
LINE
  5
1636F
  8
5-3図補助
 10
106.44997264995691
 20
21.743187155515461
 30
0.0
 11
108.9031324294176
 21
24.196346934976209
 31
0.0
  0
LINE
  5
16370
  8
5-3図補助
 10
110.4642343107049
 20
25.757448816263508
 30
0.0
 11
111.72798331060839
 21
27.02119781616679
 31
0.0
  0
LINE
  5
16371
  8
5-3図補助
 10
113.6607759206361
 20
28.953990426194839
 30
0.0
 11
114.0874699211768
 21
29.380684426735201
 31
0.0
  0
LINE
  5
16372
  8
5-3図補助
 10
105.7958066524052
 20
21.743187155515461
 30
0.0
 11
108.2489664318656
 21
24.196346934976209
 31
0.0
  0
LINE
  5
16373
  8
5-3図補助
 10
109.8100683131529
 20
25.757448816263508
 30
0.0
 11
111.0738173130563
 21
27.02119781616679
 31
0.0
  0
LINE
  5
16374
  8
5-3図補助
 10
111.8915373638729
 20
27.838917866983159
 30
0.0
 11
112.22763995393071
 21
28.175020457041541
 31
0.0
  0
LINE
  5
16375
  8
5-3図補助
 10
113.0066099230844
 20
28.953990426194839
 30
0.0
 11
114.0874699211768
 21
30.03485042428704
 31
0.0
  0
LINE
  5
16376
  8
5-3図補助
 10
105.14164065485279
 20
21.743187155515461
 30
0.0
 11
107.5948004343136
 21
24.196346934976209
 31
0.0
  0
LINE
  5
16377
  8
5-3図補助
 10
109.1559023156012
 20
25.757448816263508
 30
0.0
 11
110.4196513155043
 21
27.02119781616679
 31
0.0
  0
LINE
  5
16378
  8
5-3図補助
 10
111.2373713663209
 20
27.838917866983159
 30
0.0
 11
113.839207213485
 21
30.440753714147291
 31
0.0
  0
LINE
  5
16379
  8
5-3図補助
 10
104.48747465730121
 20
21.743187155515461
 30
0.0
 11
106.9406344367619
 21
24.196346934976209
 31
0.0
  0
LINE
  5
1637A
  8
5-3図補助
 10
108.5017363180489
 20
25.757448816263508
 30
0.0
 11
109.7654853179527
 21
27.02119781616679
 31
0.0
  0
LINE
  5
1637B
  8
5-3図補助
 10
110.5832053687689
 20
27.838917866983159
 30
0.0
 11
113.185041215933
 21
30.440753714147291
 31
0.0
  0
LINE
  5
1637C
  8
5-3図補助
 10
103.8357065678167
 20
21.745585063583029
 30
0.0
 11
106.4565861209059
 21
24.366464616672172
 31
0.0
  0
LINE
  5
1637D
  8
5-3図補助
 10
107.8475703204972
 20
25.757448816263508
 30
0.0
 11
109.1113193204003
 21
27.02119781616679
 31
0.0
  0
LINE
  5
1637E
  8
5-3図補助
 10
109.9290393712172
 20
27.838917866983159
 30
0.0
 11
112.5768614908104
 21
30.48673998657673
 31
0.0
  0
LINE
  5
1637F
  8
5-3図補助
 10
103.5980277411292
 20
22.162072234447312
 30
0.0
 11
106.8623566863839
 21
25.426401179701902
 31
0.0
  0
LINE
  5
16380
  8
5-3図補助
 10
107.1934043229452
 20
25.757448816263508
 30
0.0
 11
108.4571533228485
 21
27.02119781616679
 31
0.0
  0
LINE
  5
16381
  8
5-3図補助
 10
109.2748733736652
 20
27.838917866983159
 30
0.0
 11
110.3899459328763
 21
28.953990426194839
 31
0.0
  0
LINE
  5
16382
  8
5-3図補助
 10
110.86161752468431
 20
29.425662018002829
 30
0.0
 11
112.0833008137994
 21
30.64734530711771
 31
0.0
  0
LINE
  5
16383
  8
5-3図補助
 10
103.6708654408796
 20
22.889075931749542
 30
0.0
 11
107.8029873252966
 21
27.02119781616679
 31
0.0
  0
LINE
  5
16384
  8
5-3図補助
 10
108.6207073761132
 20
27.838917866983159
 30
0.0
 11
109.7357799353247
 21
28.953990426194839
 31
0.0
  0
LINE
  5
16385
  8
5-3図補助
 10
110.5264359589162
 20
29.744646449786352
 30
0.0
 11
111.5986405165221
 21
30.81685100739244
 31
0.0
  0
LINE
  5
16386
  8
5-3図補助
 10
104.391561031216
 20
24.263937519638059
 30
0.0
 11
107.1488213277446
 21
27.02119781616679
 31
0.0
  0
LINE
  5
16387
  8
5-3図補助
 10
107.9665413785615
 20
27.838917866983159
 30
0.0
 11
109.0816139377727
 21
28.953990426194839
 31
0.0
  0
LINE
  5
16388
  8
5-3図補助
 10
110.1912543931474
 20
30.063630881569701
 30
0.0
 11
111.138992617409
 21
31.01136910583104
 31
0.0
  0
LINE
  5
16389
  8
5-3図補助
 10
105.02966993205661
 20
25.55621241803075
 30
0.0
 11
106.4946553301929
 21
27.02119781616679
 31
0.0
  0
LINE
  5
1638A
  8
5-3図補助
 10
107.3123753810095
 20
27.838917866983159
 30
0.0
 11
108.4274479402207
 21
28.953990426194839
 31
0.0
  0
LINE
  5
1638B
  8
5-3図補助
 10
109.8560728273789
 20
30.38261531335305
 30
0.0
 11
110.82233978113889
 21
31.348882267112931
 31
0.0
  0
LINE
  5
1638C
  8
5-3図補助
 10
104.5767403327375
 20
25.757448816263508
 30
0.0
 11
105.8404893326406
 21
27.02119781616679
 31
0.0
  0
LINE
  5
1638D
  8
5-3図補助
 10
106.6582093834575
 20
27.838917866983159
 30
0.0
 11
107.773281942669
 21
28.953990426194839
 31
0.0
  0
LINE
  5
1638E
  8
5-3図補助
 10
109.5208912616104
 20
30.701599745136569
 30
0.0
 11
110.5056869448688
 21
31.686395428394491
 31
0.0
  0
LINE
  5
1638F
  8
5-3図補助
 10
103.9225743351855
 20
25.757448816263508
 30
0.0
 11
105.1863233350889
 21
27.02119781616679
 31
0.0
  0
LINE
  5
16390
  8
5-3図補助
 10
106.0040433859054
 20
27.838917866983159
 30
0.0
 11
107.1320241546418
 21
28.966898635719719
 31
0.0
  0
LINE
  5
16391
  8
5-3図補助
 10
109.051908555145
 20
30.886783036222731
 30
0.0
 11
110.18903410859831
 21
32.023908589676203
 31
0.0
  0
LINE
  5
16392
  8
5-3図補助
 10
103.52422762422739
 20
26.013268102857431
 30
0.0
 11
104.5321573375369
 21
27.02119781616679
 31
0.0
  0
LINE
  5
16393
  8
5-3図補助
 10
105.3812486308648
 20
27.8702891094945
 30
0.0
 11
106.7025079510848
 21
29.191548429714569
 31
0.0
  0
LINE
  5
16394
  8
5-3図補助
 10
107.36625601207859
 20
29.855296490708628
 30
0.0
 11
109.6614915574964
 21
32.150532036126179
 31
0.0
  0
LINE
  5
16395
  8
5-3図補助
 10
103.5236341211353
 20
26.666840597317009
 30
0.0
 11
103.8779913399849
 21
27.02119781616679
 31
0.0
  0
LINE
  5
16396
  8
5-3図補助
 10
105.2346780875226
 20
28.377884563704381
 30
0.0
 11
109.00732555994441
 21
32.150532036126179
 31
0.0
  0
LINE
  5
16397
  8
5-3図補助
 10
105.11146817306511
 20
28.908840646799181
 30
0.0
 11
108.35315956239241
 21
32.150532036126179
 31
0.0
  0
LINE
  5
16398
  8
5-3図補助
 10
104.5024519549093
 20
28.953990426194839
 30
0.0
 11
107.4505090086452
 21
31.902047479930982
 31
0.0
  0
LINE
  5
16399
  8
5-3図補助
 10
103.84828595735721
 20
28.953990426194839
 30
0.0
 11
105.3819044627875
 21
30.487608931624909
 31
0.0
  0
LINE
  5
1639A
  8
5-3図補助
 10
103.2039625965247
 20
28.963833062914109
 30
0.0
 11
104.68088324775751
 21
30.440753714147291
 31
0.0
  0
LINE
  5
1639B
  8
5-3図補助
 10
103.0028818790021
 20
29.416918342943539
 30
0.0
 11
104.02671725020581
 21
30.440753714147291
 31
0.0
  0
LINE
  5
1639C
  8
5-3図補助
 10
103.0028818790021
 20
30.071084340495212
 30
0.0
 11
103.37255125265349
 21
30.440753714147291
 31
0.0
  0
LINE
  5
1639D
  8
5-3図補助
 10
125.7032618477738
 20
21.371496426774709
 30
0.0
 11
126.659922308887
 21
22.328156887887548
 31
0.0
  0
LINE
  5
1639E
  8
5-3図補助
 10
125.0490958502218
 20
21.371496426774709
 30
0.0
 11
126.659922308887
 21
22.982322885439569
 31
0.0
  0
LINE
  5
1639F
  8
5-3図補助
 10
124.3949298526697
 20
21.371496426774709
 30
0.0
 11
126.659922308887
 21
23.636488882991411
 31
0.0
  0
LINE
  5
163A0
  8
5-3図補助
 10
123.7407638551181
 20
21.371496426774709
 30
0.0
 11
126.659922308887
 21
24.290654880543421
 31
0.0
  0
LINE
  5
163A1
  8
5-3図補助
 10
123.0865978575661
 20
21.371496426774709
 30
0.0
 11
126.0601248064595
 21
24.345023375668308
 31
0.0
  0
LINE
  5
163A2
  8
5-3図補助
 10
122.43243186001411
 20
21.371496426774709
 30
0.0
 11
125.4059588089078
 21
24.345023375668308
 31
0.0
  0
LINE
  5
163A3
  8
5-3図補助
 10
121.7782658624624
 20
21.371496426774709
 30
0.0
 11
124.7517928113558
 21
24.345023375668308
 31
0.0
  0
LINE
  5
163A4
  8
5-3図補助
 10
121.12409986490999
 20
21.371496426774709
 30
0.0
 11
124.0976268138038
 21
24.345023375668308
 31
0.0
  0
LINE
  5
163A5
  8
5-3図補助
 10
120.46993386735841
 20
21.371496426774709
 30
0.0
 11
123.6859900105856
 21
24.587552570001741
 31
0.0
  0
LINE
  5
163A6
  8
5-3図補助
 10
119.87758670856461
 20
21.433315265532851
 30
0.0
 11
123.68419423738101
 21
25.239922794349031
 31
0.0
  0
LINE
  5
163A7
  8
5-3図補助
 10
119.49910518062001
 20
21.70899973513999
 30
0.0
 11
123.68419423738101
 21
25.894088791901051
 31
0.0
  0
LINE
  5
163A8
  8
5-3図補助
 10
119.30260537733839
 20
22.16666592941046
 30
0.0
 11
121.4809628235964
 21
24.345023375668308
 31
0.0
  0
LINE
  5
163A9
  8
5-3図補助
 10
122.27072289227431
 20
25.134783444346361
 30
0.0
 11
123.68419423738101
 21
26.548254789452891
 31
0.0
  0
LINE
  5
163AA
  8
5-3図補助
 10
124.97485731491111
 20
27.838917866983159
 30
0.0
 11
125.4696312041972
 21
28.33369175626942
 31
0.0
  0
LINE
  5
163AB
  8
5-3図補助
 10
117.55591699576679
 20
21.07414354539085
 30
0.0
 11
117.88152409522669
 21
21.399750644850791
 31
0.0
  0
LINE
  5
163AC
  8
5-3図補助
 10
119.2949948207683
 20
22.813221370392419
 30
0.0
 11
120.8267968260441
 21
24.345023375668308
 31
0.0
  0
LINE
  5
163AD
  8
5-3図補助
 10
122.27072289227431
 20
25.788949441898371
 30
0.0
 11
123.68419423738101
 21
27.2024207870049
 31
0.0
  0
LINE
  5
163AE
  8
5-3図補助
 10
124.3206913173594
 20
27.838917866983159
 30
0.0
 11
125.4696312041972
 21
28.987857753821249
 31
0.0
  0
LINE
  5
163AF
  8
5-3図補助
 10
116.9078056218125
 20
21.08019816898868
 30
0.0
 11
117.88152409522669
 21
22.053916642402811
 31
0.0
  0
LINE
  5
163B0
  8
5-3図補助
 10
119.2949948207683
 20
23.467387367944429
 30
0.0
 11
120.1726308284924
 21
24.345023375668308
 31
0.0
  0
LINE
  5
163B1
  8
5-3図補助
 10
122.27072289227431
 20
26.443115439450391
 30
0.0
 11
125.22596005510459
 21
29.398352602280308
 31
0.0
  0
LINE
  5
163B2
  8
5-3図補助
 10
116.6912323709726
 20
21.517790915700299
 30
0.0
 11
117.88152409522669
 21
22.708082639954821
 31
0.0
  0
LINE
  5
163B3
  8
5-3図補助
 10
119.2949948207683
 20
24.121553365496119
 30
0.0
 11
119.5184648309401
 21
24.345023375668308
 31
0.0
  0
LINE
  5
163B4
  8
5-3図補助
 10
122.27072289227431
 20
27.097281437002231
 30
0.0
 11
124.5734608305535
 21
29.40001937528157
 31
0.0
  0
LINE
  5
163B5
  8
5-3図補助
 10
116.6912323709726
 20
22.17195691325232
 30
0.0
 11
117.88152409522669
 21
23.362248637506831
 31
0.0
  0
LINE
  5
163B6
  8
5-3図補助
 10
122.22924882663411
 20
27.709973368913921
 30
0.0
 11
123.9217139806954
 21
29.402438522975469
 31
0.0
  0
LINE
  5
163B7
  8
5-3図補助
 10
116.6912323709726
 20
22.82612291080434
 30
0.0
 11
117.88152409522669
 21
24.01641463505868
 31
0.0
  0
LINE
  5
163B8
  8
5-3図補助
 10
118.8788202602145
 20
25.013710800046479
 30
0.0
 11
119.83725144703109
 21
25.972141986862901
 31
0.0
  0
LINE
  5
163B9
  8
5-3図補助
 10
121.70402732715139
 20
27.838917866983159
 30
0.0
 11
123.68419423738101
 21
29.81908477721262
 31
0.0
  0
LINE
  5
163BA
  8
5-3図補助
 10
116.3645823540962
 20
23.153638891480021
 30
0.0
 11
117.88152409522669
 21
24.67058063261052
 31
0.0
  0
LINE
  5
163BB
  8
5-3図補助
 10
118.5218824415013
 20
25.310938978885211
 30
0.0
 11
119.4117202644499
 21
26.200776801833651
 31
0.0
  0
LINE
  5
163BC
  8
5-3図補助
 10
121.04986132959969
 20
27.838917866983159
 30
0.0
 11
123.68419423738101
 21
30.473250774764459
 31
0.0
  0
LINE
  5
163BD
  8
5-3図補助
 10
115.3308211059984
 20
22.7740436409339
 30
0.0
 11
118.9830192926574
 21
26.426241827593248
 31
0.0
  0
LINE
  5
163BE
  8
5-3図補助
 10
120.44857854046479
 20
27.89180107540064
 30
0.0
 11
121.9567968403458
 21
29.40001937528157
 31
0.0
  0
LINE
  5
163BF
  8
5-3図補助
 10
122.27072289227431
 20
29.71394542721011
 30
0.0
 11
123.68419423738101
 21
31.127416772316469
 31
0.0
  0
LINE
  5
163C0
  8
5-3図補助
 10
114.7270312631976
 20
22.824419795685358
 30
0.0
 11
118.7739450215654
 21
26.871333554052711
 31
0.0
  0
LINE
  5
163C1
  8
5-3図補助
 10
120.33649992459949
 20
28.433888457086962
 30
0.0
 11
121.3026308427938
 21
29.40001937528157
 31
0.0
  0
LINE
  5
163C2
  8
5-3図補助
 10
122.27072289227431
 20
30.36811142476196
 30
0.0
 11
123.68419423738101
 21
31.781582769868312
 31
0.0
  0
LINE
  5
163C3
  8
5-3図補助
 10
114.6826157833038
 20
23.434170313343511
 30
0.0
 11
118.9460871587917
 21
27.697641688831158
 31
0.0
  0
LINE
  5
163C4
  8
5-3図補助
 10
120.33649992459949
 20
29.088054454638971
 30
0.0
 11
120.6484648452421
 21
29.40001937528157
 31
0.0
  0
LINE
  5
163C5
  8
5-3図補助
 10
122.27072289227431
 20
31.02227742231414
 30
0.0
 11
123.4673243636155
 21
32.218878893654811
 31
0.0
  0
LINE
  5
163C6
  8
5-3図補助
 10
114.6826157833038
 20
24.088336310895361
 30
0.0
 11
116.5528518670953
 21
25.95857239468652
 31
0.0
  0
LINE
  5
163C7
  8
5-3図補助
 10
117.83185054203599
 20
27.237571069627531
 30
0.0
 11
119.0188321648893
 21
28.424552692481161
 31
0.0
  0
LINE
  5
163C8
  8
5-3図補助
 10
122.27072289227431
 20
31.676443419865809
 30
0.0
 11
122.8191497288808
 21
32.224870256472137
 31
0.0
  0
LINE
  5
163C9
  8
5-3図補助
 10
114.6826157833038
 20
24.74250230844719
 30
0.0
 11
115.6562358854964
 21
25.716122410639539
 31
0.0
  0
LINE
  5
163CA
  8
5-3図補助
 10
117.9696933737587
 20
28.029579898902021
 30
0.0
 11
119.0718151999158
 21
29.131701725059521
 31
0.0
  0
LINE
  5
163CB
  8
5-3図補助
 10
118.02899594277891
 20
28.743048465474111
 30
0.0
 11
119.0718151999158
 21
29.78586772261135
 31
0.0
  0
LINE
  5
163CC
  8
5-3図補助
 10
117.5114336856017
 20
28.879652205849219
 30
0.0
 11
118.9512699922568
 21
30.319488512504361
 31
0.0
  0
LINE
  5
163CD
  8
5-3図補助
 10
116.8572676880497
 20
28.879652205848881
 30
0.0
 11
118.34403134899119
 21
30.366415866790209
 31
0.0
  0
LINE
  5
163CE
  8
5-3図補助
 10
116.203101690498
 20
28.879652205848881
 30
0.0
 11
117.9560247890637
 21
30.63257530441475
 31
0.0
  0
LINE
  5
163CF
  8
5-3図補助
 10
115.54893569294561
 20
28.879652205848881
 30
0.0
 11
117.95591709565591
 21
31.286633608559121
 31
0.0
  0
LINE
  5
163D0
  8
5-3図補助
 10
115.1315008596513
 20
29.11638337010654
 30
0.0
 11
116.381533356335
 21
30.366415866790209
 31
0.0
  0
LINE
  5
163D1
  8
5-3図補助
 10
116.7656253714017
 20
30.750507881856802
 30
0.0
 11
117.94972329052889
 21
31.93460580098419
 31
0.0
  0
LINE
  5
163D2
  8
5-3図補助
 10
115.1289750250079
 20
29.76802353301499
 30
0.0
 11
115.7273673587831
 21
30.366415866790209
 31
0.0
  0
LINE
  5
163D3
  8
5-3図補助
 10
116.7656253714017
 20
31.404673879408641
 30
0.0
 11
117.5114835281192
 21
32.150532036126179
 31
0.0
  0
POLYLINE
  5
163D4
  8
5-3図補助
 66
     1
 10
0.0
 20
0.0
 30
0.0
 70
   132
 75
     6
  0
VERTEX
  5
163D5
  8
5-3図補助
 10
15.663792323193571
 20
25.90699941840413
 30
0.0
 70
    16
  0
VERTEX
  5
163D6
  8
5-3図補助
 10
15.663792323193571
 20
25.90699941840413
 30
0.0
 70
     8
  0
VERTEX
  5
163D7
  8
5-3図補助
 10
15.675551853238421
 20
25.398299629046921
 30
0.0
 70
     8
  0
VERTEX
  5
163D8
  8
5-3図補助
 10
15.7849240100053
 20
24.757463606662579
 30
0.0
 70
     8
  0
VERTEX
  5
163D9
  8
5-3図補助
 10
16.11417523828176
 20
23.678468100817462
 30
0.0
 70
     8
  0
VERTEX
  5
163DA
  8
5-3図補助
 10
16.643652461590271
 20
22.74361285391435
 30
0.0
 70
     8
  0
VERTEX
  5
163DB
  8
5-3図補助
 10
17.581006820910851
 20
21.68169069472096
 30
0.0
 70
     8
  0
VERTEX
  5
163DC
  8
5-3図補助
 10
18.497470863388141
 20
21.00603452088265
 30
0.0
 70
     8
  0
VERTEX
  5
163DD
  8
5-3図補助
 10
19.797017829781019
 20
20.410050010730931
 30
0.0
 70
     8
  0
VERTEX
  5
163DE
  8
5-3図補助
 10
20.914501823701819
 20
20.148517487113189
 30
0.0
 70
     8
  0
VERTEX
  5
163DF
  8
5-3図補助
 10
22.350437401208431
 20
20.101240172845358
 30
0.0
 70
     8
  0
VERTEX
  5
163E0
  8
5-3図補助
 10
23.483625630347682
 20
20.28834008458929
 30
0.0
 70
     8
  0
VERTEX
  5
163E1
  8
5-3図補助
 10
24.822206707766689
 20
20.795883259728239
 30
0.0
 70
     8
  0
VERTEX
  5
163E2
  8
5-3図補助
 10
25.784946383138521
 20
21.407178475263059
 30
0.0
 70
     8
  0
VERTEX
  5
163E3
  8
5-3図補助
 10
26.797831375324812
 20
22.40047061954888
 30
0.0
 70
     8
  0
VERTEX
  5
163E4
  8
5-3図補助
 10
27.404178128327231
 20
23.316661543600411
 30
0.0
 70
     8
  0
VERTEX
  5
163E5
  8
5-3図補助
 10
27.848833591190459
 20
24.481501112714131
 30
0.0
 70
     8
  0
VERTEX
  5
163E6
  8
5-3図補助
 10
28.013325710783441
 20
25.25695460359659
 30
0.0
 70
     8
  0
VERTEX
  5
163E7
  8
5-3図補助
 10
28.032674617181691
 20
25.90699941840413
 30
0.0
 70
     8
  0
VERTEX
  5
163E8
  8
5-3図補助
 10
15.6636337345873
 20
25.398286478252341
 30
0.0
 70
    16
  0
VERTEX
  5
163E9
  8
5-3図補助
 10
15.734983857886411
 20
24.889652442868432
 30
0.0
 70
    16
  0
VERTEX
  5
163EA
  8
5-3図補助
 10
16.1059748938982
 20
23.587885390249621
 30
0.0
 70
    16
  0
VERTEX
  5
163EB
  8
5-3図補助
 10
16.526167996212411
 20
22.829614601036859
 30
0.0
 70
    16
  0
VERTEX
  5
163EC
  8
5-3図補助
 10
17.651267890794109
 20
21.555333329088189
 30
0.0
 70
    16
  0
VERTEX
  5
163ED
  8
5-3図補助
 10
18.35480136607659
 20
21.039196250936492
 30
0.0
 70
    16
  0
VERTEX
  5
163EE
  8
5-3図補助
 10
19.914351825228682
 20
20.324088792462209
 30
0.0
 70
    16
  0
VERTEX
  5
163EF
  8
5-3図補助
 10
20.76989831169444
 20
20.12474864360026
 30
0.0
 70
    16
  0
VERTEX
  5
163F0
  8
5-3図補助
 10
22.493065870204891
 20
20.06802155581536
 30
0.0
 70
    16
  0
VERTEX
  5
163F1
  8
5-3図補助
 10
23.360462614736232
 20
20.210606170210461
 30
0.0
 70
    16
  0
VERTEX
  5
163F2
  8
5-3図補助
 10
24.96683745293662
 20
20.819594270879371
 30
0.0
 70
    16
  0
VERTEX
  5
163F3
  8
5-3図補助
 10
25.705427820116729
 20
21.286316304640788
 30
0.0
 70
    16
  0
VERTEX
  5
163F4
  8
5-3図補助
 10
26.921129565426579
 20
22.478211362136349
 30
0.0
 70
    16
  0
VERTEX
  5
163F5
  8
5-3図補助
 10
27.397042170125161
 20
23.203661964107901
 30
0.0
 70
    16
  0
VERTEX
  5
163F6
  8
5-3図補助
 10
27.915770524036841
 20
24.607110043035188
 30
0.0
 70
    16
  0
VERTEX
  5
163F7
  8
5-3図補助
 10
28.032877280870281
 20
25.25690454003497
 30
0.0
 70
    16
  0
VERTEX
  5
163F8
  8
5-3図補助
 10
28.032674617181691
 20
25.90699941840413
 30
0.0
 70
    16
  0
SEQEND
  5
163F9
  8
5-3図補助
  0
TEXT
  5
1724E
  8
1-2図名
  6
CONTINUOUS
 10
195.38071065989851
 20
49.164974619289232
 30
0.0
 40
5.0
  1
笠木　175
 72
     4
 11
210.00000000000011
 21
51.499999999999879
 31
0.0
  0
LINE
  5
18814
  8
5-1躯体
 10
257.5
 20
167.1875
 30
0.0
 11
137.5
 21
167.18749999999989
 31
0.0
  0
LINE
  5
18832
  8
4-3アンカー
 10
202.99999999999989
 20
182.68750000000011
 30
0.0
 11
217.00000000000011
 21
182.68750000000011
 31
0.0
  0
ARC
  5
18833
  8
4-3アンカー
 10
206.80000000000021
 20
184.8874999999999
 30
0.0
 40
1.8
 50
90.0
 51
180.0
  0
LINE
  5
18834
  8
4-3アンカー
 10
205.00000000000011
 20
184.8874999999999
 30
0.0
 11
205.00000000000011
 21
182.68750000000011
 31
0.0
  0
ARC
  5
18835
  8
4-3アンカー
 10
213.2000000000001
 20
184.8874999999999
 30
0.0
 40
1.8
 50
0.0
 51
90.0
  0
LINE
  5
18836
  8
4-3アンカー
 10
215.0
 20
182.68750000000011
 30
0.0
 11
215.0
 21
184.8874999999999
 31
0.0
  0
LINE
  5
18837
  8
4-3アンカー
 10
213.2000000000001
 20
186.68750000000011
 30
0.0
 11
206.80000000000021
 21
186.68750000000011
 31
0.0
  0
LINE
  5
18838
  8
4-3アンカー
 10
217.00000000000011
 20
182.68750000000011
 30
0.0
 11
217.00000000000011
 21
181.68750000000011
 31
0.0
  0
LINE
  5
18839
  8
4-3アンカー
 10
202.99999999999989
 20
182.68750000000011
 30
0.0
 11
202.99999999999989
 21
181.68750000000011
 31
0.0
  0
LINE
  5
1883A
  8
4-3アンカー
 10
202.99999999999989
 20
181.68750000000011
 30
0.0
 11
217.00000000000011
 21
181.68750000000011
 31
0.0
  0
LINE
  5
1884C
  8
5-1躯体
 10
137.5
 20
167.18749999999989
 30
0.0
 11
137.5
 21
77.187499999999972
 31
0.0
  0
LINE
  5
1884D
  8
5-1躯体
 10
272.5
 20
152.18749999999989
 30
0.0
 11
272.5
 21
77.187499999999972
 31
0.0
  0
LINE
  5
1885A
  8
5-3図補助
 10
137.5
 20
118.327110306788
 30
0.0
 11
186.36038969321149
 21
167.18749999999989
 31
0.0
  0
LINE
  5
1885B
  8
5-3図補助
 10
137.5
 20
125.3981781186538
 30
0.0
 11
179.2893218813459
 21
167.1875
 31
0.0
  0
LINE
  5
1885C
  8
5-3図補助
 10
137.5
 20
132.46924593051941
 30
0.0
 11
172.21825406948039
 21
167.1875
 31
0.0
  0
LINE
  5
1885D
  8
5-3図補助
 10
209.49747468305881
 20
77.187499999999972
 30
0.0
 11
272.5
 21
140.1900253169413
 31
0.0
  0
LINE
  5
1885E
  8
5-3図補助
 10
216.5685424949242
 20
77.187499999999972
 30
0.0
 11
272.5
 21
133.1189575050758
 31
0.0
  0
LINE
  5
1885F
  8
5-3図補助
 10
223.63961030678939
 20
77.187499999999986
 30
0.0
 11
272.5
 21
126.0478896932099
 31
0.0
  0
LINE
  5
18860
  8
5-3図補助
 10
137.5
 20
167.18749999999989
 30
0.0
 11
147.49999999999989
 21
177.18749999999989
 31
0.0
  0
LINE
  5
18861
  8
5-3図補助
 10
257.5
 20
169.1874999999998
 30
0.0
 11
147.5
 21
169.1875
 31
0.0
  0
LINE
  5
18862
  8
5-3図補助
 10
257.5
 20
171.1874999999998
 30
0.0
 11
147.5
 21
171.18750000000011
 31
0.0
  0
LINE
  5
18863
  8
5-3図補助
 10
257.5
 20
173.1874999999998
 30
0.0
 11
147.5
 21
173.18750000000011
 31
0.0
  0
LINE
  5
18864
  8
5-3図補助
 10
257.5
 20
175.1874999999998
 30
0.0
 11
147.5
 21
175.1875
 31
0.0
  0
LINE
  5
18865
  8
5-3図補助
 10
257.5
 20
177.1874999999998
 30
0.0
 11
147.5
 21
177.18750000000011
 31
0.0
  0
LINE
  5
18866
  8
5-3図補助
 10
274.5
 20
152.18749999999989
 30
0.0
 11
274.5
 21
77.187499999999972
 31
0.0
  0
LINE
  5
18867
  8
5-3図補助
 10
276.5
 20
152.18749999999989
 30
0.0
 11
276.50000000000011
 21
77.187499999999972
 31
0.0
  0
LINE
  5
18868
  8
5-3図補助
 10
278.5
 20
152.18749999999989
 30
0.0
 11
278.50000000000011
 21
77.187499999999972
 31
0.0
  0
LINE
  5
18869
  8
5-3図補助
 10
280.49999999999989
 20
152.18749999999989
 30
0.0
 11
280.50000000000011
 21
77.187499999999972
 31
0.0
  0
LINE
  5
1886A
  8
5-3図補助
 10
282.49999999999989
 20
152.18749999999989
 30
0.0
 11
282.50000000000011
 21
77.187499999999972
 31
0.0
  0
LINE
  5
1886B
  8
5-1躯体
 10
257.5
 20
167.1875
 30
0.0
 11
272.5
 21
152.18749999999989
 31
0.0
  0
LINE
  5
1886C
  8
5-3図補助
 10
258.91421356237311
 20
168.60171356237311
 30
0.0
 11
273.91421356237311
 21
153.60171356237311
 31
0.0
  0
LINE
  5
1886D
  8
5-3図補助
 10
260.32842712474621
 20
170.01592712474621
 30
0.0
 11
275.32842712474621
 21
155.01592712474621
 31
0.0
  0
LINE
  5
1886E
  8
5-3図補助
 10
261.74264068711932
 20
171.43014068711929
 30
0.0
 11
276.74264068711932
 21
156.43014068711929
 31
0.0
  0
LINE
  5
1886F
  8
5-3図補助
 10
263.15685424949243
 20
172.8443542494924
 30
0.0
 11
278.15685424949243
 21
157.8443542494924
 31
0.0
  0
LINE
  5
18870
  8
5-3図補助
 10
264.57106781186548
 20
174.2585678118655
 30
0.0
 11
279.57106781186559
 21
159.2585678118655
 31
0.0
  0
ARC
  5
18871
  8
5-3図補助
 10
257.5
 20
167.1875
 30
0.0
 40
2.0
 50
44.999999999999588
 51
90.0
  0
ARC
  5
18872
  8
5-3図補助
 10
257.5
 20
167.1875
 30
0.0
 40
4.0
 50
44.999999999999588
 51
90.0
  0
ARC
  5
18873
  8
5-3図補助
 10
257.5
 20
167.1875
 30
0.0
 40
6.0
 50
44.999999999999588
 51
90.0
  0
ARC
  5
18874
  8
5-3図補助
 10
257.5
 20
167.1875
 30
0.0
 40
8.0
 50
44.999999999999588
 51
90.0
  0
ARC
  5
18875
  8
5-3図補助
 10
257.5
 20
167.1875
 30
0.0
 40
10.0
 50
44.999999999999588
 51
90.0
  0
ARC
  5
18876
  8
5-3図補助
 10
272.5
 20
152.18749999999989
 30
0.0
 40
2.0
 50
0.0
 51
44.999999999999588
  0
ARC
  5
18877
  8
5-3図補助
 10
272.5
 20
152.18749999999989
 30
0.0
 40
4.0
 50
0.0
 51
44.999999999999588
  0
ARC
  5
18878
  8
5-3図補助
 10
272.5
 20
152.18749999999989
 30
0.0
 40
6.0
 50
0.0
 51
44.999999999999588
  0
ARC
  5
18879
  8
5-3図補助
 10
272.5
 20
152.18749999999989
 30
0.0
 40
8.0
 50
0.0
 51
44.999999999999588
  0
ARC
  5
1887A
  8
5-3図補助
 10
272.5
 20
152.18749999999989
 30
0.0
 40
10.0
 50
0.0
 51
44.999999999999588
  0
LINE
  5
1887B
  8
5-3図補助
 10
147.5
 20
177.18749999999989
 30
0.0
 11
147.5
 21
167.1875
 31
0.0
  0
LINE
  5
18889
  8
4-3アンカー
 10
205.15034100000051
 20
177.68750000000011
 30
0.0
 11
214.86462700000041
 21
177.68750000000011
 31
0.0
  0
LINE
  5
1888A
  8
4-3アンカー
 10
205.70748400000051
 20
166.54464300000009
 30
0.0
 11
205.70748400000051
 21
167.6875
 31
0.0
  0
LINE
  5
1888B
  8
4-3アンカー
 10
205.15034100000051
 20
177.18750000000011
 30
0.0
 11
214.86462700000041
 21
177.18750000000011
 31
0.0
  0
LINE
  5
1888C
  8
4-3アンカー
 10
205.15034100000051
 20
177.18750000000011
 30
0.0
 11
206.0074840000004
 21
176.83035700000019
 31
0.0
  0
LINE
  5
1888D
  8
4-3アンカー
 10
205.15034100000051
 20
177.68750000000011
 30
0.0
 11
205.15034100000051
 21
177.18750000000011
 31
0.0
  0
LINE
  5
1888E
  8
4-3アンカー
 10
206.60748400000051
 20
177.18750000000011
 30
0.0
 11
206.85748400000051
 21
176.83035700000019
 31
0.0
  0
ARC
  5
1888F
  8
4-3アンカー
 10
208.0789130000004
 20
173.11607100000001
 30
0.0
 40
0.571429
 50
90.0
 51
180.0
  0
LINE
  5
18890
  8
4-3アンカー
 10
208.2574840000004
 20
173.11607100000001
 30
0.0
 11
211.7574840000004
 21
173.11607100000001
 31
0.0
  0
LINE
  5
18891
  8
4-3アンカー
 10
206.0074840000004
 20
176.83035700000019
 30
0.0
 11
206.85748400000051
 21
176.83035700000019
 31
0.0
  0
LINE
  5
18892
  8
4-3アンカー
 10
206.60748400000051
 20
177.18750000000011
 30
0.0
 11
207.5074840000004
 21
176.83035700000019
 31
0.0
  0
LINE
  5
18893
  8
4-3アンカー
 10
206.0074840000004
 20
171.6875
 30
0.0
 11
206.0074840000004
 21
176.83035700000019
 31
0.0
  0
LINE
  5
18894
  8
4-3アンカー
 10
205.7574840000004
 20
170.3482140000001
 30
0.0
 11
205.7574840000004
 21
171.6875
 31
0.0
  0
LINE
  5
18895
  8
4-3アンカー
 10
205.7574840000004
 20
171.6875
 30
0.0
 11
206.85748400000051
 21
171.6875
 31
0.0
  0
LINE
  5
18896
  8
4-3アンカー
 10
214.86462700000041
 20
177.18750000000011
 30
0.0
 11
214.86462700000041
 21
177.68750000000011
 31
0.0
  0
LINE
  5
18897
  8
4-3アンカー
 10
207.5074840000004
 20
176.83035700000019
 30
0.0
 11
212.5074840000004
 21
176.83035700000019
 31
0.0
  0
LINE
  5
18898
  8
4-3アンカー
 10
213.40748400000041
 20
177.18750000000011
 30
0.0
 11
212.5074840000004
 21
176.83035700000019
 31
0.0
  0
LINE
  5
18899
  8
4-3アンカー
 10
213.40748400000041
 20
177.18750000000011
 30
0.0
 11
213.15748400000041
 21
176.83035700000019
 31
0.0
  0
LINE
  5
1889A
  8
4-3アンカー
 10
208.0789130000004
 20
173.68750000000011
 30
0.0
 11
211.93605500000049
 21
173.68750000000011
 31
0.0
  0
ARC
  5
1889B
  8
4-3アンカー
 10
211.93605500000049
 20
173.11607100000001
 30
0.0
 40
0.571429
 50
0.0
 51
90.0
  0
LINE
  5
1889C
  8
4-3アンカー
 10
208.2574840000004
 20
168.11607100000001
 30
0.0
 11
211.7574840000004
 21
168.11607100000001
 31
0.0
  0
LINE
  5
1889D
  8
4-3アンカー
 10
207.5074840000004
 20
169.18750000000011
 30
0.0
 11
208.2574840000004
 21
169.18750000000011
 31
0.0
  0
LINE
  5
1889E
  8
4-3アンカー
 10
207.5074840000004
 20
169.68750000000011
 30
0.0
 11
208.2574840000004
 21
169.68750000000011
 31
0.0
  0
LINE
  5
1889F
  8
4-3アンカー
 10
212.5074840000004
 20
169.18750000000011
 30
0.0
 11
211.7574840000004
 21
169.18750000000011
 31
0.0
  0
LINE
  5
188A0
  8
4-3アンカー
 10
212.5074840000004
 20
169.68750000000011
 30
0.0
 11
211.7574840000004
 21
169.68750000000011
 31
0.0
  0
LINE
  5
188A1
  8
4-3アンカー
 10
206.0074840000004
 20
138.83035699999999
 30
0.0
 11
214.0074840000004
 21
138.83035699999999
 31
0.0
  0
LINE
  5
188A2
  8
4-3アンカー
 10
206.4000000000004
 20
137.68750000000011
 30
0.0
 11
213.6149680000004
 21
137.68750000000011
 31
0.0
  0
LINE
  5
188A3
  8
4-3アンカー
 10
206.0074840000004
 20
138.83035699999999
 30
0.0
 11
206.4000000000004
 21
137.68750000000011
 31
0.0
  0
LINE
  5
188A4
  8
4-3アンカー
 10
213.6149680000004
 20
137.68750000000011
 30
0.0
 11
214.0074840000004
 21
138.83035699999999
 31
0.0
  0
LINE
  5
188A5
  8
4-3アンカー
 10
206.0074840000004
 20
138.83035699999999
 30
0.0
 11
206.0074840000004
 21
143.18750000000011
 31
0.0
  0
LINE
  5
188A6
  8
4-3アンカー
 10
207.5074840000004
 20
142.56250000000011
 30
0.0
 11
207.5074840000004
 21
176.83035700000019
 31
0.0
  0
LINE
  5
188A7
  8
4-3アンカー
 10
208.2574840000004
 20
142.56250000000011
 30
0.0
 11
208.2574840000004
 21
173.68750000000011
 31
0.0
  0
ARC
  5
188A8
  8
4-3アンカー
 10
207.8824840000004
 20
142.56250000000011
 30
0.0
 40
0.375
 50
180.0
 51
0.0
  0
LINE
  5
188A9
  8
4-3アンカー
 10
211.7574840000004
 20
142.56250000000011
 30
0.0
 11
211.7574840000004
 21
173.68750000000011
 31
0.0
  0
LINE
  5
188AA
  8
4-3アンカー
 10
212.5074840000004
 20
142.56250000000011
 30
0.0
 11
212.5074840000004
 21
176.83035700000019
 31
0.0
  0
ARC
  5
188AB
  8
4-3アンカー
 10
212.1324840000004
 20
142.56250000000011
 30
0.0
 40
0.375
 50
180.0
 51
0.0
  0
LINE
  5
188AC
  8
4-3アンカー
 10
205.70748400000051
 20
162.54464300000009
 30
0.0
 11
205.70748400000051
 21
163.68750000000011
 31
0.0
  0
LINE
  5
188AD
  8
4-3アンカー
 10
205.70748400000051
 20
158.54464300000009
 30
0.0
 11
205.70748400000051
 21
159.68750000000011
 31
0.0
  0
LINE
  5
188AE
  8
4-3アンカー
 10
205.70748400000051
 20
154.54464300000009
 30
0.0
 11
205.70748400000051
 21
155.68750000000011
 31
0.0
  0
LINE
  5
188AF
  8
4-3アンカー
 10
205.70748400000051
 20
150.54464300000009
 30
0.0
 11
205.70748400000051
 21
151.68750000000011
 31
0.0
  0
LINE
  5
188B0
  8
4-3アンカー
 10
205.70748400000051
 20
146.54464300000009
 30
0.0
 11
205.70748400000051
 21
147.68750000000011
 31
0.0
  0
LINE
  5
188B1
  8
4-3アンカー
 10
206.55748400000039
 20
146.54464300000009
 30
0.0
 11
205.70748400000051
 21
146.54464300000009
 31
0.0
  0
ARC
  5
188B2
  8
4-3アンカー
 10
206.55748400000039
 20
146.84464299999999
 30
0.0
 40
0.3
 50
270.0
 51
0.0
  0
LINE
  5
188B3
  8
4-3アンカー
 10
206.55748400000039
 20
150.54464300000009
 30
0.0
 11
205.70748400000051
 21
150.54464300000009
 31
0.0
  0
ARC
  5
188B4
  8
4-3アンカー
 10
206.55748400000039
 20
150.84464299999999
 30
0.0
 40
0.3
 50
270.0
 51
0.0
  0
LINE
  5
188B5
  8
4-3アンカー
 10
206.55748400000039
 20
154.54464300000009
 30
0.0
 11
205.70748400000051
 21
154.54464300000009
 31
0.0
  0
ARC
  5
188B6
  8
4-3アンカー
 10
206.55748400000039
 20
154.84464299999999
 30
0.0
 40
0.3
 50
270.0
 51
0.0
  0
LINE
  5
188B7
  8
4-3アンカー
 10
206.55748400000039
 20
158.54464300000009
 30
0.0
 11
205.70748400000051
 21
158.54464300000009
 31
0.0
  0
ARC
  5
188B8
  8
4-3アンカー
 10
206.55748400000039
 20
158.84464299999999
 30
0.0
 40
0.3
 50
270.0
 51
0.0
  0
LINE
  5
188B9
  8
4-3アンカー
 10
206.55748400000039
 20
162.54464300000009
 30
0.0
 11
205.70748400000051
 21
162.54464300000009
 31
0.0
  0
ARC
  5
188BA
  8
4-3アンカー
 10
206.55748400000039
 20
162.84464299999999
 30
0.0
 40
0.3
 50
270.0
 51
0.0
  0
LINE
  5
188BB
  8
4-3アンカー
 10
206.55748400000039
 20
166.54464300000009
 30
0.0
 11
205.70748400000051
 21
166.54464300000009
 31
0.0
  0
ARC
  5
188BC
  8
4-3アンカー
 10
206.55748400000039
 20
166.84464299999999
 30
0.0
 40
0.3
 50
270.0
 51
0.0
  0
LINE
  5
188BD
  8
4-3アンカー
 10
206.55748400000039
 20
170.3482140000001
 30
0.0
 11
205.7574840000004
 21
170.3482140000001
 31
0.0
  0
ARC
  5
188BE
  8
4-3アンカー
 10
206.55748400000039
 20
170.64821400000011
 30
0.0
 40
0.3
 50
270.0
 51
0.0
  0
LINE
  5
188BF
  8
4-3アンカー
 10
206.0074840000004
 20
143.18750000000011
 30
0.0
 11
206.5810910000005
 21
143.47430300000011
 31
0.0
  0
ARC
  5
188C0
  8
4-3アンカー
 10
206.35748400000051
 20
143.92151700000011
 30
0.0
 40
0.5
 50
296.565051000003
 51
0.0
  0
LINE
  5
188C1
  8
4-3アンカー
 10
206.54159100000041
 20
148.01783900000009
 30
0.0
 11
205.70748400000051
 21
147.68750000000011
 31
0.0
  0
ARC
  5
188C2
  8
4-3アンカー
 10
206.35748400000051
 20
148.48271000000011
 30
0.0
 40
0.5
 50
291.60552699999789
 51
0.0
  0
LINE
  5
188C3
  8
4-3アンカー
 10
206.54159100000041
 20
152.01783900000009
 30
0.0
 11
205.70748400000051
 21
151.68750000000011
 31
0.0
  0
ARC
  5
188C4
  8
4-3アンカー
 10
206.35748400000051
 20
152.48271000000011
 30
0.0
 40
0.5
 50
291.60552699999789
 51
0.0
  0
LINE
  5
188C5
  8
4-3アンカー
 10
206.54159100000041
 20
156.01783900000009
 30
0.0
 11
205.70748400000051
 21
155.68750000000011
 31
0.0
  0
ARC
  5
188C6
  8
4-3アンカー
 10
206.35748400000051
 20
156.48271000000011
 30
0.0
 40
0.5
 50
291.60552699999789
 51
0.0
  0
LINE
  5
188C7
  8
4-3アンカー
 10
206.54159100000041
 20
160.01783900000009
 30
0.0
 11
205.70748400000051
 21
159.68750000000011
 31
0.0
  0
ARC
  5
188C8
  8
4-3アンカー
 10
206.35748400000051
 20
160.48271000000011
 30
0.0
 40
0.5
 50
291.60552699999789
 51
0.0
  0
LINE
  5
188C9
  8
4-3アンカー
 10
206.54159100000041
 20
164.01783900000009
 30
0.0
 11
205.70748400000051
 21
163.68750000000011
 31
0.0
  0
ARC
  5
188CA
  8
4-3アンカー
 10
206.35748400000051
 20
164.48271
 30
0.0
 40
0.5
 50
291.60552699999789
 51
0.0
  0
LINE
  5
188CB
  8
4-3アンカー
 10
206.85748400000051
 20
143.92151700000011
 30
0.0
 11
206.85748400000051
 21
176.83035700000019
 31
0.0
  0
LINE
  5
188CC
  8
4-3アンカー
 10
206.54159100000041
 20
168.01783900000009
 30
0.0
 11
205.70748400000051
 21
167.6875
 31
0.0
  0
ARC
  5
188CD
  8
4-3アンカー
 10
206.35748400000051
 20
168.48271000000011
 30
0.0
 40
0.5
 50
291.60552699999789
 51
0.0
  0
LINE
  5
188CE
  8
4-3アンカー
 10
206.8020990000004
 20
168.2539800000001
 30
0.0
 11
205.7574840000004
 21
170.3482140000001
 31
0.0
  0
LINE
  5
188CF
  8
4-3アンカー
 10
206.70341400000041
 20
164.1216940000001
 30
0.0
 11
205.70748400000051
 21
166.54464300000009
 31
0.0
  0
LINE
  5
188D0
  8
4-3アンカー
 10
206.66112800000039
 20
160.0854690000001
 30
0.0
 11
205.70748400000051
 21
162.54464300000009
 31
0.0
  0
LINE
  5
188D1
  8
4-3アンカー
 10
206.66112800000039
 20
156.0854690000001
 30
0.0
 11
205.70748400000051
 21
158.54464300000009
 31
0.0
  0
LINE
  5
188D2
  8
4-3アンカー
 10
206.66112800000039
 20
152.0854690000001
 30
0.0
 11
205.70748400000051
 21
154.54464300000009
 31
0.0
  0
LINE
  5
188D3
  8
4-3アンカー
 10
206.66112800000039
 20
148.0854690000001
 30
0.0
 11
205.70748400000051
 21
150.54464300000009
 31
0.0
  0
LINE
  5
188D4
  8
4-3アンカー
 10
206.8084480000004
 20
143.7055740000001
 30
0.0
 11
205.70748400000051
 21
146.54464300000009
 31
0.0
  0
LINE
  5
188D5
  8
4-3アンカー
 10
214.30748400000039
 20
166.54464300000009
 30
0.0
 11
214.30748400000039
 21
167.6875
 31
0.0
  0
LINE
  5
188D6
  8
4-3アンカー
 10
214.0074840000004
 20
171.6875
 30
0.0
 11
214.0074840000004
 21
176.83035700000019
 31
0.0
  0
LINE
  5
188D7
  8
4-3アンカー
 10
214.2574840000004
 20
170.3482140000001
 30
0.0
 11
214.2574840000004
 21
171.6875
 31
0.0
  0
LINE
  5
188D8
  8
4-3アンカー
 10
214.2574840000004
 20
171.6875
 30
0.0
 11
213.15748400000041
 21
171.6875
 31
0.0
  0
LINE
  5
188D9
  8
4-3アンカー
 10
214.0074840000004
 20
138.83035699999999
 30
0.0
 11
214.0074840000004
 21
143.18750000000011
 31
0.0
  0
LINE
  5
188DA
  8
4-3アンカー
 10
214.30748400000039
 20
162.54464300000009
 30
0.0
 11
214.30748400000039
 21
163.68750000000011
 31
0.0
  0
LINE
  5
188DB
  8
4-3アンカー
 10
214.30748400000039
 20
158.54464300000009
 30
0.0
 11
214.30748400000039
 21
159.68750000000011
 31
0.0
  0
LINE
  5
188DC
  8
4-3アンカー
 10
214.30748400000039
 20
154.54464300000009
 30
0.0
 11
214.30748400000039
 21
155.68750000000011
 31
0.0
  0
LINE
  5
188DD
  8
4-3アンカー
 10
214.30748400000039
 20
150.54464300000009
 30
0.0
 11
214.30748400000039
 21
151.68750000000011
 31
0.0
  0
LINE
  5
188DE
  8
4-3アンカー
 10
214.30748400000039
 20
146.54464300000009
 30
0.0
 11
214.30748400000039
 21
147.68750000000011
 31
0.0
  0
LINE
  5
188DF
  8
4-3アンカー
 10
213.45748400000051
 20
146.54464300000009
 30
0.0
 11
214.30748400000039
 21
146.54464300000009
 31
0.0
  0
ARC
  5
188E0
  8
4-3アンカー
 10
213.45748400000051
 20
146.84464299999999
 30
0.0
 40
0.3
 50
180.0
 51
270.0
  0
LINE
  5
188E1
  8
4-3アンカー
 10
213.45748400000051
 20
150.54464300000009
 30
0.0
 11
214.30748400000039
 21
150.54464300000009
 31
0.0
  0
ARC
  5
188E2
  8
4-3アンカー
 10
213.45748400000051
 20
150.84464299999999
 30
0.0
 40
0.3
 50
180.0
 51
270.0
  0
LINE
  5
188E3
  8
4-3アンカー
 10
213.45748400000051
 20
154.54464300000009
 30
0.0
 11
214.30748400000039
 21
154.54464300000009
 31
0.0
  0
ARC
  5
188E4
  8
4-3アンカー
 10
213.45748400000051
 20
154.84464299999999
 30
0.0
 40
0.3
 50
180.0
 51
270.0
  0
LINE
  5
188E5
  8
4-3アンカー
 10
213.45748400000051
 20
158.54464300000009
 30
0.0
 11
214.30748400000039
 21
158.54464300000009
 31
0.0
  0
ARC
  5
188E6
  8
4-3アンカー
 10
213.45748400000051
 20
158.84464299999999
 30
0.0
 40
0.3
 50
180.0
 51
270.0
  0
LINE
  5
188E7
  8
4-3アンカー
 10
213.45748400000051
 20
162.54464300000009
 30
0.0
 11
214.30748400000039
 21
162.54464300000009
 31
0.0
  0
ARC
  5
188E8
  8
4-3アンカー
 10
213.45748400000051
 20
162.84464299999999
 30
0.0
 40
0.3
 50
180.0
 51
270.0
  0
LINE
  5
188E9
  8
4-3アンカー
 10
213.45748400000051
 20
166.54464300000009
 30
0.0
 11
214.30748400000039
 21
166.54464300000009
 31
0.0
  0
ARC
  5
188EA
  8
4-3アンカー
 10
213.45748400000051
 20
166.84464299999999
 30
0.0
 40
0.3
 50
180.0
 51
270.0
  0
LINE
  5
188EB
  8
4-3アンカー
 10
213.45748400000051
 20
170.3482140000001
 30
0.0
 11
214.2574840000004
 21
170.3482140000001
 31
0.0
  0
ARC
  5
188EC
  8
4-3アンカー
 10
213.45748400000051
 20
170.64821400000011
 30
0.0
 40
0.3
 50
180.0
 51
270.0
  0
LINE
  5
188ED
  8
4-3アンカー
 10
214.0074840000004
 20
143.18750000000011
 30
0.0
 11
213.43387700000039
 21
143.47430300000011
 31
0.0
  0
ARC
  5
188EE
  8
4-3アンカー
 10
213.65748400000041
 20
143.92151700000011
 30
0.0
 40
0.5
 50
180.0
 51
243.434948999997
  0
LINE
  5
188EF
  8
4-3アンカー
 10
213.47337700000051
 20
148.01783900000009
 30
0.0
 11
214.30748400000039
 21
147.68750000000011
 31
0.0
  0
ARC
  5
188F0
  8
4-3アンカー
 10
213.65748400000041
 20
148.48271000000011
 30
0.0
 40
0.5
 50
180.0
 51
248.39447300000211
  0
LINE
  5
188F1
  8
4-3アンカー
 10
213.47337700000051
 20
152.01783900000009
 30
0.0
 11
214.30748400000039
 21
151.68750000000011
 31
0.0
  0
ARC
  5
188F2
  8
4-3アンカー
 10
213.65748400000041
 20
152.48271000000011
 30
0.0
 40
0.5
 50
180.0
 51
248.39447300000211
  0
LINE
  5
188F3
  8
4-3アンカー
 10
213.47337700000051
 20
156.01783900000009
 30
0.0
 11
214.30748400000039
 21
155.68750000000011
 31
0.0
  0
ARC
  5
188F4
  8
4-3アンカー
 10
213.65748400000041
 20
156.48271000000011
 30
0.0
 40
0.5
 50
180.0
 51
248.39447300000211
  0
LINE
  5
188F5
  8
4-3アンカー
 10
213.47337700000051
 20
160.01783900000009
 30
0.0
 11
214.30748400000039
 21
159.68750000000011
 31
0.0
  0
ARC
  5
188F6
  8
4-3アンカー
 10
213.65748400000041
 20
160.48271000000011
 30
0.0
 40
0.5
 50
180.0
 51
248.39447300000211
  0
LINE
  5
188F7
  8
4-3アンカー
 10
213.47337700000051
 20
164.01783900000009
 30
0.0
 11
214.30748400000039
 21
163.68750000000011
 31
0.0
  0
ARC
  5
188F8
  8
4-3アンカー
 10
213.65748400000041
 20
164.48271
 30
0.0
 40
0.5
 50
180.0
 51
248.39447300000211
  0
LINE
  5
188F9
  8
4-3アンカー
 10
213.15748400000041
 20
143.92151700000011
 30
0.0
 11
213.15748400000041
 21
176.83035700000019
 31
0.0
  0
LINE
  5
188FA
  8
4-3アンカー
 10
213.47337700000051
 20
168.01783900000009
 30
0.0
 11
214.30748400000039
 21
167.6875
 31
0.0
  0
ARC
  5
188FB
  8
4-3アンカー
 10
213.65748400000041
 20
168.48271000000011
 30
0.0
 40
0.5
 50
180.0
 51
248.39447300000211
  0
LINE
  5
188FC
  8
4-3アンカー
 10
213.21286900000041
 20
168.2539800000001
 30
0.0
 11
214.2574840000004
 21
170.3482140000001
 31
0.0
  0
LINE
  5
188FD
  8
4-3アンカー
 10
213.31155400000051
 20
164.1216940000001
 30
0.0
 11
214.30748400000039
 21
166.54464300000009
 31
0.0
  0
LINE
  5
188FE
  8
4-3アンカー
 10
213.35384000000039
 20
160.0854690000001
 30
0.0
 11
214.30748400000039
 21
162.54464300000009
 31
0.0
  0
LINE
  5
188FF
  8
4-3アンカー
 10
213.35384000000039
 20
156.0854690000001
 30
0.0
 11
214.30748400000039
 21
158.54464300000009
 31
0.0
  0
LINE
  5
18900
  8
4-3アンカー
 10
213.35384000000039
 20
152.0854690000001
 30
0.0
 11
214.30748400000039
 21
154.54464300000009
 31
0.0
  0
LINE
  5
18901
  8
4-3アンカー
 10
213.35384000000039
 20
148.0854690000001
 30
0.0
 11
214.30748400000039
 21
150.54464300000009
 31
0.0
  0
LINE
  5
18902
  8
4-3アンカー
 10
213.20652000000041
 20
143.7055740000001
 30
0.0
 11
214.30748400000039
 21
146.54464300000009
 31
0.0
  0
LINE
  5
18903
  8
4-3アンカー
 10
213.15748400000041
 20
176.83035700000019
 30
0.0
 11
214.0074840000004
 21
176.83035700000019
 31
0.0
  0
LINE
  5
18904
  8
4-3アンカー
 10
214.86462700000041
 20
177.18750000000011
 30
0.0
 11
214.0074840000004
 21
176.83035700000019
 31
0.0
  0
LINE
  5
18905
  8
4-3アンカー
 10
206.99999999999989
 20
181.68750000000011
 30
0.0
 11
206.99999999999989
 21
177.68750000000011
 31
0.0
  0
LINE
  5
18906
  8
4-3アンカー
 10
213.00000000000011
 20
181.68749999999929
 30
0.0
 11
213.00000000000011
 21
177.68750000000011
 31
0.0
  0
TEXT
  5
1A4BB
  8
1-4文字
 10
377.31218274111683
 20
272.50000000000023
 30
0.0
 40
6.0
  1
A3 S=1/1
 72
     2
 11
408.49999999999989
 21
275.50000000000023
 31
0.0
 73
     2
  0
TEXT
  5
1A4BC
  8
1-4文字
 10
236.50000000000011
 20
277.50000000000023
 30
0.0
 40
6.0
  1
コーナー 500ｘ500
 72
     2
 11
302.77411167512702
 21
280.50000000000023
 31
0.0
 73
     2
  0
TEXT
  5
1A4C0
  8
1-4文字
 10
126.5000000000001
 20
277.50000000000023
 30
0.0
 40
6.0
  1
笠木本体:L=4000 t=1.3～1.5
 72
     2
 11
227.86040609137069
 21
280.50000000000023
 31
0.0
 73
     2
  0
TEXT
  5
1A4C2
  8
1-4文字
 10
126.5000000000001
 20
268.00000000000023
 30
0.0
 40
5.0
  1
カラー:シルバー、ステンカラー(受注生産:アンバー、ブラック)
 72
     2
 11
314.92639593908638
 21
270.50000000000023
 31
0.0
 73
     2
  0
LINE
  5
1A571
  8
5-4図補助2
 10
122.5000000000001
 20
210.68750000000011
 30
0.0
 11
125.7027153172872
 21
210.452258196245
 31
0.0
  0
LINE
  5
1A583
  8
5-4図補助2
 10
297.50000000000023
 20
138.08750000000009
 30
0.0
 11
297.50000000000023
 21
139.0901785954685
 31
0.0
  0
LINE
  5
1A584
  8
5-4図補助2
 10
122.5000000000001
 20
137.1848175234347
 30
0.0
 11
123.5000000000001
 21
137.1848175234347
 31
0.0
  0
LINE
  5
1A585
  8
5-4図補助2
 10
122.53652075714081
 20
139.48481752343471
 30
0.0
 11
126.56737398091219
 21
139.48481752343471
 31
0.0
  0
LINE
  5
1A586
  8
5-4図補助2
 10
295.95266139973188
 20
138.0875000000002
 30
0.0
 11
297.50000000000023
 21
138.08750000000009
 31
0.0
  0
LINE
  5
1AC38
  8
5-4図補助2
 10
122.5000000000001
 20
210.68750000000011
 30
0.0
 11
122.5000000000001
 21
207.4591149487309
 31
0.0
  0
LINE
  5
1AC8E
  8
5-4図補助2
 10
122.5000000000001
 20
138.1874994401939
 30
0.0
 11
122.5000000000001
 21
137.18481752343479
 31
0.0
  0
LINE
  5
1C07E
  8
5-2その他
 10
190.00032874287751
 20
181.68749999999989
 30
0.0
 11
190.00032874287751
 21
177.18749999999989
 31
0.0
  0
LINE
  5
1C07F
  8
5-2その他
 10
230.00032874287771
 20
181.6848175234347
 30
0.0
 11
230.00032874287771
 21
177.18481752343459
 31
0.0
  0
TEXT
  5
1C10A
  8
2-1寸法
 10
144.86249006591791
 20
154.6161795270545
 30
0.0
 40
3.0
  1
ブラケット W=50
 72
     1
 11
159.4817794060194
 21
154.6161795270545
 31
0.0
  0
LINE
  5
1C10B
  8
2-1寸法
 10
144.86249006591791
 20
153.61617952705441
 30
0.0
 11
175.32091100926661
 21
153.61617952705441
 31
0.0
  0
TEXT
  5
1C10C
  8
2-1寸法
 10
259.5977751427576
 20
219.31534298507239
 30
0.0
 40
3.0
  1
笠木本体
 72
     1
 11
267.39472945747838
 21
219.31534298507239
 31
0.0
  0
LINE
  5
1C10D
  8
2-1寸法
 10
259.59777514275771
 20
218.31534298507239
 30
0.0
 11
276.05619608610641
 21
218.31534298507239
 31
0.0
  0
TEXT
  5
1C10E
  8
2-1寸法
 10
215.4053465676688
 20
123.16142802019
 30
0.0
 40
3.0
  1
アンカー(B-M8W)
 72
     1
 11
230.02463590777029
 21
123.16142802019
 31
0.0
  0
LINE
  5
1C10F
  8
2-1寸法
 10
215.4053465676688
 20
122.1614280201899
 30
0.0
 11
244.8637675110175
 21
122.1614280201899
 31
0.0
  0
LINE
  5
1C110
  8
2-1寸法
 10
211.2239896170357
 20
137.68750000000011
 30
0.0
 11
215.38418806565451
 21
122.1614280201899
 31
0.0
  0
LINE
  5
1C111
  8
2-1寸法
 10
175.32091100926661
 20
153.61617952705441
 30
0.0
 11
181.63682729452901
 21
177.18749999999989
 31
0.0
  0
LINE
  5
1C112
  8
2-1寸法
 10
259.59777514275771
 20
218.31534298507239
 30
0.0
 11
254.94843696873789
 21
200.96377669806509
 31
0.0
  0
TEXT
  5
1C4C2
  8
2-1寸法
 10
194.77111827120319
 20
215.81250000000011
 30
0.0
 40
3.0
  1
(ルーズ穴 7x40)
 72
     1
 11
209.39040761130471
 21
215.81250000000011
 31
0.0
  0
LINE
  5
1CA9F
  8
1-1図枠
 10
10.000000000000179
 20
286.00000000000011
 30
0.0
 11
10.000000000000179
 21
11.000000000000011
 31
0.0
  0
LINE
  5
1CAA0
  8
DEFPOINTS
 10
9.8000000000001801
 20
286.19999999999999
 30
0.0
 11
9.8000000000001801
 21
10.80000000000013
 31
0.0
  0
LINE
  5
1CAA1
  8
1-1図枠
 10
10.500000000000179
 20
285.5
 30
0.0
 11
10.500000000000179
 21
11.500000000000011
 31
0.0
  0
LINE
  5
1CAA2
  8
1-1図枠
 10
410.00000000000011
 20
286.00000000000011
 30
0.0
 11
410.00000000000011
 21
11.000000000000011
 31
0.0
  0
LINE
  5
1CAA3
  8
DEFPOINTS
 10
410.20000000000022
 20
286.19999999999999
 30
0.0
 11
410.20000000000022
 21
10.80000000000002
 31
0.0
  0
LINE
  5
1CAA4
  8
1-1図枠
 10
409.50000000000011
 20
285.50000000000011
 30
0.0
 11
409.50000000000011
 21
11.499999999999771
 31
0.0
  0
LINE
  5
1CAA5
  8
1-1図枠
 10
10.000000000000179
 20
11.000000000000011
 30
0.0
 11
410.00000000000011
 21
11.000000000000011
 31
0.0
  0
LINE
  5
1CAA6
  8
DEFPOINTS
 10
9.8000000000001801
 20
10.80000000000001
 30
0.0
 11
410.20000000000022
 21
10.80000000000001
 31
0.0
  0
LINE
  5
1CAA7
  8
1-1図枠
 10
10.500000000000179
 20
11.500000000000011
 30
0.0
 11
409.50000000000011
 21
11.499999999999771
 31
0.0
  0
LINE
  5
1CAA8
  8
1-1図枠
 10
10.500000000000179
 20
285.5
 30
0.0
 11
409.50000000000011
 21
285.50000000000023
 31
0.0
  0
LINE
  5
1CAA9
  8
1-1図枠
 10
10.000000000000179
 20
286.0
 30
0.0
 11
410.00000000000011
 21
286.0
 31
0.0
  0
LINE
  5
1CAAA
  8
DEFPOINTS
 10
9.8000000000001801
 20
286.19999999999999
 30
0.0
 11
410.20000000000022
 21
286.19999999999999
 31
0.0
  0
LINE
  5
1CAAB
  8
1-1図枠
 10
10.500000000000179
 20
41.500000000000007
 30
0.0
 11
409.50000000000011
 21
41.499999999999773
 31
0.0
  0
LINE
  5
1CAAC
  8
1-1図枠
 10
130.50000000000011
 20
41.499999999999943
 30
0.0
 11
130.50000000000011
 21
11.500000000000011
 31
0.0
  0
LINE
  5
1CAAD
  8
1-1図枠
 10
249.5000000000002
 20
41.499999999999872
 30
0.0
 11
249.50000000000011
 21
11.499999999999771
 31
0.0
  0
LINE
  5
1CAAE
  8
1-1図枠
 10
10.500000000000179
 20
265.5
 30
0.0
 11
409.50000000000011
 21
265.50000000000023
 31
0.0
  0
LINE
  5
1CAAF
  8
1-1図枠
 10
50.500000000000178
 20
285.5
 30
0.0
 11
50.500000000000192
 21
265.5
 31
0.0
  0
LINE
  5
1CAB0
  8
1-1図枠
 10
125.5000000000002
 20
285.5
 30
0.0
 11
125.5000000000001
 21
265.5
 31
0.0
  0
LINE
  5
1CAB1
  8
DEFPOINTS
 10
0.0
 20
0.0
 30
0.0
 11
0.0
 21
297.0
 31
0.0
  0
LINE
  5
1CAB2
  8
DEFPOINTS
 10
0.0
 20
297.0
 30
0.0
 11
420.0
 21
297.0
 31
0.0
  0
LINE
  5
1CAB3
  8
DEFPOINTS
 10
420.0
 20
297.0
 30
0.0
 11
420.0
 21
0.0
 31
0.0
  0
LINE
  5
1CAB4
  8
DEFPOINTS
 10
420.0
 20
0.0
 30
0.0
 11
0.0
 21
0.0
 31
0.0
  0
LINE
  5
1CB65
  8
5-4図補助2
 10
294.84560801035701
 20
198.03127037195111
 30
0.0
 11
297.5
 21
197.8363033212905
 31
0.0
  0
LINE
  5
1CB66
  8
5-4図補助2
 10
297.5
 20
195.05124434804159
 30
0.0
 11
297.5
 21
197.8363033212905
 31
0.0
  0
LINE
  5
1D1B0
  8
2-1寸法
 10
119.5000000000002
 20
210.6875000000004
 30
0.0
 11
102.03652075714081
 21
210.6875000000004
 31
0.0
  0
LINE
  5
1D1B1
  8
2-1寸法
 10
119.5000000000002
 20
137.18750000000011
 30
0.0
 11
102.03652075714081
 21
137.18750000000011
 31
0.0
  0
LINE
  5
1D1B2
  8
2-1寸法
 10
102.53652075714091
 20
209.6875000000004
 30
0.0
 11
102.53652075714081
 21
138.18750000000011
 31
0.0
  0
INSERT
  5
1D1B3
  8
2-1寸法
  2
_DOT
 10
102.53652075714091
 20
210.6875000000004
 30
0.0
 50
90.0
  0
INSERT
  5
1D1B4
  8
2-1寸法
  2
_DOT
 10
102.53652075714081
 20
137.18750000000011
 30
0.0
 50
270.0
  0
INSERT
  5
1D1B5
  8
0
  2
*U31
 10
0.0
 20
0.0
 30
0.0
  0
LINE
  5
1D1B6
  8
2-1寸法
 10
136.47162763031031
 20
177.18750000000011
 30
0.0
 11
112.03652075714091
 21
177.18750000000011
 31
0.0
  0
LINE
  5
1D1B7
  8
2-1寸法
 10
119.5000000000002
 20
137.18750000000011
 30
0.0
 11
112.03652075714081
 21
137.18750000000011
 31
0.0
  0
LINE
  5
1D1B8
  8
2-1寸法
 10
112.53652075714091
 20
176.18750000000011
 30
0.0
 11
112.53652075714081
 21
138.18750000000011
 31
0.0
  0
INSERT
  5
1D1B9
  8
2-1寸法
  2
_DOT
 10
112.53652075714091
 20
177.18750000000011
 30
0.0
 50
90.0
  0
INSERT
  5
1D1BA
  8
2-1寸法
  2
_DOT
 10
112.53652075714081
 20
137.18750000000011
 30
0.0
 50
270.0
  0
INSERT
  5
1D1BB
  8
0
  2
*U32
 10
0.0
 20
0.0
 30
0.0
  0
LINE
  5
1D1BC
  8
2-1寸法
 10
300.50000000000023
 20
138.08749999999989
 30
0.0
 11
313.03652075714092
 21
138.08749999999989
 31
0.0
  0
LINE
  5
1D1BD
  8
2-1寸法
 10
300.5
 20
197.8363033212905
 30
0.0
 11
313.03652075714092
 21
197.8363033212905
 31
0.0
  0
LINE
  5
1D1BE
  8
2-1寸法
 10
312.53652075714092
 20
139.08749999999989
 30
0.0
 11
312.53652075714092
 21
196.8363033212905
 31
0.0
  0
INSERT
  5
1D1BF
  8
2-1寸法
  2
_DOT
 10
312.53652075714092
 20
138.08749999999989
 30
0.0
 50
270.0
  0
INSERT
  5
1D1C0
  8
2-1寸法
  2
_DOT
 10
312.53652075714092
 20
197.8363033212905
 30
0.0
 50
90.0
  0
INSERT
  5
1D1C1
  8
0
  2
*U33
 10
0.0
 20
0.0
 30
0.0
  0
LINE
  5
1D1C2
  8
2-1寸法
 10
125.5000000000001
 20
210.68750000000011
 30
0.0
 11
313.03652075714092
 21
210.68750000000011
 31
0.0
  0
LINE
  5
1D1C3
  8
2-1寸法
 10
300.5
 20
197.8363033212905
 30
0.0
 11
313.03652075714092
 21
197.8363033212905
 31
0.0
  0
LINE
  5
1D1C4
  8
2-1寸法
 10
312.53652075714092
 20
209.68750000000011
 30
0.0
 11
312.53652075714092
 21
198.8363033212905
 31
0.0
  0
INSERT
  5
1D1C5
  8
0
  2
*U34
 10
0.0
 20
0.0
 30
0.0
  0
INSERT
  5
1D1C6
  8
2-1寸法
  2
_DOT
 10
312.53652075714092
 20
210.68750000000011
 30
0.0
 50
90.0
  0
INSERT
  5
1D1C7
  8
2-1寸法
  2
_DOT
 10
312.53652075714092
 20
197.8363033212905
 30
0.0
 50
270.0
  0
LINE
  5
1D1C8
  8
2-1寸法
 10
122.5000000000001
 20
135.1874994401939
 30
0.0
 11
122.5000000000001
 21
112.6874994401938
 31
0.0
  0
LINE
  5
1D1C9
  8
2-1寸法
 10
137.50000000000011
 20
120.1874994401938
 30
0.0
 11
137.50000000000011
 21
112.6874994401938
 31
0.0
  0
LINE
  5
1D1CA
  8
2-1寸法
 10
123.5000000000001
 20
113.1874994401938
 30
0.0
 11
136.50000000000011
 21
113.1874994401938
 31
0.0
  0
INSERT
  5
1D1CB
  8
2-1寸法
  2
_DOT
 10
122.5000000000001
 20
113.1874994401938
 30
0.0
 50
180.0
  0
INSERT
  5
1D1CC
  8
2-1寸法
  2
_DOT
 10
137.50000000000011
 20
113.1874994401938
 30
0.0
  0
INSERT
  5
1D1CD
  8
0
  2
*U35
 10
0.0
 20
0.0
 30
0.0
  0
LINE
  5
1D1CE
  8
2-1寸法
 10
137.5
 20
120.1874994401938
 30
0.0
 11
137.5
 21
112.6874994401938
 31
0.0
  0
LINE
  5
1D1CF
  8
2-1寸法
 10
272.5
 20
120.1874994401938
 30
0.0
 11
272.5
 21
112.6874994401938
 31
0.0
  0
LINE
  5
1D1D0
  8
2-1寸法
 10
138.5
 20
113.1874994401938
 30
0.0
 11
271.50000000000011
 21
113.1874994401938
 31
0.0
  0
INSERT
  5
1D1D1
  8
2-1寸法
  2
_DOT
 10
137.5
 20
113.1874994401938
 30
0.0
 50
180.0
  0
INSERT
  5
1D1D2
  8
2-1寸法
  2
_DOT
 10
272.5
 20
113.1874994401938
 30
0.0
  0
INSERT
  5
1D1D3
  8
0
  2
*U36
 10
0.0
 20
0.0
 30
0.0
  0
LINE
  5
1D1D4
  8
2-1寸法
 10
272.5
 20
119.565181916759
 30
0.0
 11
272.5
 21
112.690181916759
 31
0.0
  0
LINE
  5
1D1D5
  8
2-1寸法
 10
282.49999999999989
 20
114.5413785954685
 30
0.0
 11
282.49999999999989
 21
112.690181916759
 31
0.0
  0
LINE
  5
1D1D6
  8
2-1寸法
 10
273.49999999999989
 20
113.190181916759
 30
0.0
 11
281.49999999999989
 21
113.190181916759
 31
0.0
  0
INSERT
  5
1D1D7
  8
0
  2
*U37
 10
0.0
 20
0.0
 30
0.0
  0
INSERT
  5
1D1D8
  8
2-1寸法
  2
_DOT
 10
272.5
 20
113.190181916759
 30
0.0
 50
180.0
  0
INSERT
  5
1D1D9
  8
2-1寸法
  2
_DOT
 10
282.49999999999989
 20
113.190181916759
 30
0.0
  0
LINE
  5
1D1DA
  8
2-1寸法
 10
282.50000000000011
 20
120.1874994401938
 30
0.0
 11
282.50000000000011
 21
112.6874994401938
 31
0.0
  0
LINE
  5
1D1DB
  8
2-1寸法
 10
297.50000000000023
 20
136.0901785954685
 30
0.0
 11
297.50000000000023
 21
112.6874994401938
 31
0.0
  0
LINE
  5
1D1DC
  8
2-1寸法
 10
283.5
 20
113.1874994401938
 30
0.0
 11
296.50000000000011
 21
113.1874994401938
 31
0.0
  0
INSERT
  5
1D1DD
  8
2-1寸法
  2
_DOT
 10
282.50000000000011
 20
113.1874994401938
 30
0.0
 50
180.0
  0
INSERT
  5
1D1DE
  8
2-1寸法
  2
_DOT
 10
297.50000000000023
 20
113.1874994401938
 30
0.0
  0
INSERT
  5
1D1DF
  8
0
  2
*U38
 10
0.0
 20
0.0
 30
0.0
  0
LINE
  5
1D1E0
  8
2-1寸法
 10
122.5000000000001
 20
135.1874994401939
 30
0.0
 11
122.5000000000001
 21
122.6874994401938
 31
0.0
  0
LINE
  5
1D1E1
  8
2-1寸法
 10
129.50000000000011
 20
134.6874994401939
 30
0.0
 11
129.50000000000011
 21
122.6874994401938
 31
0.0
  0
LINE
  5
1D1E2
  8
2-1寸法
 10
123.5000000000001
 20
123.1874994401938
 30
0.0
 11
128.50000000000011
 21
123.1874994401938
 31
0.0
  0
INSERT
  5
1D1E3
  8
2-1寸法
  2
_DOT
 10
122.5000000000001
 20
123.1874994401938
 30
0.0
 50
180.0
  0
INSERT
  5
1D1E4
  8
2-1寸法
  2
_DOT
 10
129.50000000000011
 20
123.1874994401938
 30
0.0
  0
INSERT
  5
1D1E5
  8
0
  2
*U39
 10
0.0
 20
0.0
 30
0.0
  0
LINE
  5
1D1E6
  8
2-1寸法
 10
290.50000000000023
 20
135.5901785954685
 30
0.0
 11
290.50000000000023
 21
122.6874994401938
 31
0.0
  0
LINE
  5
1D1E7
  8
2-1寸法
 10
297.50000000000023
 20
136.0901785954685
 30
0.0
 11
297.50000000000023
 21
122.6874994401938
 31
0.0
  0
LINE
  5
1D1E8
  8
2-1寸法
 10
291.50000000000023
 20
123.1874994401938
 30
0.0
 11
296.50000000000011
 21
123.1874994401938
 31
0.0
  0
INSERT
  5
1D1E9
  8
2-1寸法
  2
_DOT
 10
290.50000000000023
 20
123.1874994401938
 30
0.0
 50
180.0
  0
INSERT
  5
1D1EA
  8
2-1寸法
  2
_DOT
 10
297.50000000000023
 20
123.1874994401938
 30
0.0
  0
INSERT
  5
1D1EB
  8
0
  2
*U40
 10
0.0
 20
0.0
 30
0.0
  0
LINE
  5
1D1EC
  8
2-1寸法
 10
190.00032874287751
 20
184.6848175234347
 30
0.0
 11
190.00032874287751
 21
220.30981752343479
 31
0.0
  0
LINE
  5
1D1ED
  8
2-1寸法
 10
230.00032874287771
 20
184.6848175234347
 30
0.0
 11
230.00032874287771
 21
220.30981752343479
 31
0.0
  0
LINE
  5
1D1EE
  8
2-1寸法
 10
191.00032874287751
 20
219.80981752343479
 30
0.0
 11
229.00032874287771
 21
219.80981752343479
 31
0.0
  0
INSERT
  5
1D1EF
  8
2-1寸法
  2
_DOT
 10
190.00032874287751
 20
219.80981752343479
 30
0.0
 50
180.0
  0
INSERT
  5
1D1F0
  8
2-1寸法
  2
_DOT
 10
230.00032874287771
 20
219.80981752343479
 30
0.0
  0
INSERT
  5
1D1F1
  8
0
  2
*U41
 10
0.0
 20
0.0
 30
0.0
  0
ARC
  5
1D1F2
  8
4-1本体
 10
294.50000000000023
 20
195.04856187147649
 30
0.0
 40
3.0
 50
0.0
 51
85.539276692253111
  0
LINE
  5
1D1F3
  8
4-1本体
 10
297.50000000000023
 20
195.04856187147649
 30
0.0
 11
297.50000000000023
 21
139.0901785954685
 31
0.0
  0
ARC
  5
1D1F4
  8
4-1本体
 10
296.50000000000011
 20
139.0901785954685
 30
0.0
 40
1.0
 50
270.0
 51
0.0
  0
LINE
  5
1D1F5
  8
4-1本体
 10
296.50000000000011
 20
138.0901785954685
 30
0.0
 11
291.00000000000023
 21
138.0901785954685
 31
0.0
  0
ARC
  5
1D1F6
  8
4-1本体
 10
291.00000000000023
 20
138.5901785954685
 30
0.0
 40
0.5
 50
180.0
 51
270.0
  0
LINE
  5
1D1F7
  8
4-1本体
 10
290.50000000000023
 20
138.5901785954685
 30
0.0
 11
290.50000000000023
 21
139.39017859546851
 31
0.0
  0
ARC
  5
1D1F8
  8
4-1本体
 10
291.00000000000023
 20
139.39017859546851
 30
0.0
 40
0.5
 50
90.0
 51
180.0
  0
LINE
  5
1D1F9
  8
4-1本体
 10
291.00000000000023
 20
139.89017859546851
 30
0.0
 11
296.00005093429758
 21
139.89017859546851
 31
0.0
  0
LINE
  5
1D1FA
  8
4-1本体
 10
296.00005093429758
 20
139.89017859546851
 30
0.0
 11
296.00005093429758
 21
195.0626755182694
 31
0.0
  0
ARC
  5
1D1FB
  8
4-1本体
 10
294.30005093429747
 20
195.0626755182692
 30
0.0
 40
1.700000000000101
 50
0.0000000000047895
 51
85.800000000001674
  0
LINE
  5
1D1FC
  8
4-1本体
 10
294.42455586941429
 20
196.75811012955089
 30
0.0
 11
280.0000000000004
 21
197.81738329801311
 31
0.0
  0
LINE
  5
1D1FD
  8
4-1本体
 10
280.0000000000004
 20
197.81738329801311
 30
0.0
 11
280.00000000000023
 21
197.61738329801301
 31
0.0
  0
LINE
  5
1D1FE
  8
4-1本体
 10
280.00000000000023
 20
197.61738329801301
 30
0.0
 11
260.00000000000023
 21
199.08609148986559
 31
0.0
  0
LINE
  5
1D1FF
  8
4-1本体
 10
260.00000000000023
 20
199.08609148986559
 30
0.0
 11
260.00000000000023
 21
199.2866300407112
 31
0.0
  0
LINE
  5
1D200
  8
4-1本体
 10
260.00000000000023
 20
199.2866300407112
 30
0.0
 11
160.00000000000011
 21
206.6301709999737
 31
0.0
  0
LINE
  5
1D201
  8
4-1本体
 10
160.00000000000011
 20
206.6301709999737
 30
0.0
 11
160.00000000000011
 21
206.42963244912801
 31
0.0
  0
LINE
  5
1D202
  8
4-1本体
 10
160.00000000000011
 20
206.42963244912801
 30
0.0
 11
139.99999999999989
 21
207.89834064098051
 31
0.0
  0
LINE
  5
1D203
  8
4-1本体
 10
139.99999999999989
 20
207.89834064098051
 30
0.0
 11
140.00000000000011
 21
208.09887919182609
 31
0.0
  0
LINE
  5
1D204
  8
4-1本体
 10
140.00000000000011
 20
208.09887919182609
 30
0.0
 11
125.8245049351173
 21
209.1398624780941
 31
0.0
  0
ARC
  5
1D205
  8
4-1本体
 10
125.7000000000002
 20
207.44442786681239
 30
0.0
 40
1.700000000000057
 50
85.799999999995819
 51
179.99999999999901
  0
LINE
  5
1D206
  8
4-1本体
 10
124.0000000000001
 20
207.44442786681239
 30
0.0
 11
124.0000000000001
 21
138.9848175234346
 31
0.0
  0
LINE
  5
1D207
  8
4-1本体
 10
124.0000000000001
 20
138.9848175234346
 30
0.0
 11
129.0000000000002
 21
138.9848175234346
 31
0.0
  0
ARC
  5
1D208
  8
4-1本体
 10
129.0000000000002
 20
138.48481752343471
 30
0.0
 40
0.5
 50
0.0000000000065138
 51
90.0
  0
LINE
  5
1D209
  8
4-1本体
 10
129.50000000000011
 20
138.4848175234348
 30
0.0
 11
129.50000000000011
 21
137.68481752343479
 31
0.0
  0
ARC
  5
1D20A
  8
4-1本体
 10
129.0000000000002
 20
137.6848175234347
 30
0.0
 40
0.5
 50
270.0
 51
0.0000000000065138
  0
LINE
  5
1D20B
  8
4-1本体
 10
129.0000000000002
 20
137.1848175234347
 30
0.0
 11
123.5000000000001
 21
137.1848175234347
 31
0.0
  0
ARC
  5
1D20C
  8
4-1本体
 10
123.5000000000001
 20
138.1848175234347
 30
0.0
 40
1.0
 50
180.0
 51
270.0
  0
LINE
  5
1D20D
  8
4-1本体
 10
122.5000000000001
 20
138.1848175234347
 30
0.0
 11
122.5000000000001
 21
207.4591149487309
 31
0.0
  0
ARC
  5
1D20E
  8
4-1本体
 10
125.5000000000002
 20
207.45911494873121
 30
0.0
 40
3.0000000000000409
 50
85.800000000001674
 51
180.00000000000489
  0
LINE
  5
1D20F
  8
4-1本体
 10
125.719714591383
 20
210.45105838040459
 30
0.0
 11
294.73332704881619
 21
198.0394745228742
 31
0.0
  0
LINE
  5
1D210
  8
2-1寸法
 10
125.5000000000001
 20
210.6875000000004
 30
0.0
 11
320.80796207626901
 21
210.6875000000004
 31
0.0
  0
LINE
  5
1D211
  8
2-1寸法
 10
300.53652075714092
 20
138.0875000000002
 30
0.0
 11
320.80796207626901
 21
138.08750000000009
 31
0.0
  0
LINE
  5
1D212
  8
2-1寸法
 10
320.30796207626901
 20
209.68750000000031
 30
0.0
 11
320.30796207626901
 21
139.08750000000009
 31
0.0
  0
INSERT
  5
1D213
  8
2-1寸法
  2
_DOT
 10
320.30796207626901
 20
210.6875000000004
 30
0.0
 50
90.0
  0
INSERT
  5
1D214
  8
2-1寸法
  2
_DOT
 10
320.30796207626901
 20
138.08750000000009
 30
0.0
 50
270.0
  0
INSERT
  5
1D215
  8
0
  2
*U42
 10
0.0
 20
0.0
 30
0.0
  0
LINE
  5
1D216
  8
2-1寸法
 10
122.5000000000001
 20
213.6875000000002
 30
0.0
 11
122.5000000000001
 21
230.30981752343479
 31
0.0
  0
LINE
  5
1D217
  8
2-1寸法
 10
297.50000000000023
 20
200.83362084472549
 30
0.0
 11
297.50000000000023
 21
230.30981752343479
 31
0.0
  0
LINE
  5
1D218
  8
2-1寸法
 10
123.5000000000001
 20
229.8098175234347
 30
0.0
 11
296.50000000000011
 21
229.8098175234347
 31
0.0
  0
INSERT
  5
1D219
  8
2-1寸法
  2
_DOT
 10
122.5000000000001
 20
229.8098175234347
 30
0.0
 50
180.0
  0
INSERT
  5
1D21A
  8
2-1寸法
  2
_DOT
 10
297.50000000000023
 20
229.8098175234347
 30
0.0
  0
INSERT
  5
1D21B
  8
0
  2
*U43
 10
0.0
 20
0.0
 30
0.0
  0
LINE
  5
1D21C
  8
4-2付属品
 10
263.4591369649371
 20
198.8320689098145
 30
0.0
 11
264.00000000000023
 21
198.2912058747516
 31
0.0
  0
LINE
  5
1D21D
  8
4-2付属品
 10
264.00000000000023
 20
198.2912058747516
 30
0.0
 11
264.46686044830602
 21
198.75806632305711
 31
0.0
  0
LINE
  5
1D21E
  8
4-2付属品
 10
264.46686044830602
 20
198.75806632305711
 30
0.0
 11
277.0366190985639
 21
197.83500094809509
 31
0.0
  0
ARC
  5
1D21F
  8
4-2付属品
 10
277.0
 20
197.3363437094828
 30
0.0
 40
0.5000000000000507
 50
0.0000000000065138
 51
85.800000000003408
  0
LINE
  5
1D220
  8
4-2付属品
 10
277.50000000000023
 20
197.33634370948289
 30
0.0
 11
277.50000000000023
 21
196.33365095525451
 31
0.0
  0
ARC
  5
1D221
  8
4-2付属品
 10
277.00000000000023
 20
196.33365095525451
 30
0.0
 40
0.4999999999999433
 50
265.80000000000268
 51
0.0000000000032569
  0
LINE
  5
1D222
  8
4-2付属品
 10
276.96338090143649
 20
195.83499371664229
 30
0.0
 11
265.0366190985639
 21
196.71084035474991
 31
0.0
  0
ARC
  5
1D223
  8
4-2付属品
 10
265.00000000000011
 20
196.21218311613771
 30
0.0
 40
0.4999999999999656
 50
85.800000000002697
 51
180.00000000000321
  0
LINE
  5
1D224
  8
4-2付属品
 10
264.50000000000023
 20
196.21218311613751
 30
0.0
 11
264.50000000000023
 21
182.62822710395051
 31
0.0
  0
ARC
  5
1D225
  8
4-2付属品
 10
265.50000000000023
 20
182.62822710395051
 30
0.0
 40
1.0000000000000551
 50
180.00000000000321
 51
266.5012789043227
  0
LINE
  5
1D226
  8
4-2付属品
 10
265.43897373993849
 20
181.63009094310729
 30
0.0
 11
281.1649185598028
 21
180.66860328646959
 31
0.0
  0
ARC
  5
1D227
  8
4-2付属品
 10
280.5546559591848
 20
170.68724167803731
 30
0.0
 40
9.9999999999999662
 50
9.9999999999990887
 51
86.501278904319349
  0
LINE
  5
1D228
  8
4-2付属品
 10
290.4027334893068
 20
172.42372345470639
 30
0.0
 11
295.99240387650627
 21
140.72312741012439
 31
0.0
  0
ARC
  5
1D229
  8
4-2付属品
 10
295.50000000000023
 20
140.636303321291
 30
0.0
 40
0.5000000000000525
 50
270.0
 51
9.9999999999974758
  0
LINE
  5
1D22A
  8
4-2付属品
 10
295.50000000000023
 20
140.13630332129091
 30
0.0
 11
293.46914677622863
 21
140.13630332129091
 31
0.0
  0
ARC
  5
1D22B
  8
4-2付属品
 10
293.46914677622863
 20
140.6363033212908
 30
0.0
 40
0.4999999999998864
 50
189.9999999999944
 51
269.99999999999352
  0
LINE
  5
1D22C
  8
4-2付属品
 10
292.97674289972269
 20
140.5494792324574
 30
0.0
 11
287.5364281714921
 21
171.40303724366859
 31
0.0
  0
ARC
  5
1D22D
  8
4-2付属品
 10
280.64277390040672
 20
170.1875000000002
 30
0.0
 40
6.9999999999999201
 50
9.9999999999998348
 51
89.999999999999545
  0
LINE
  5
1D22E
  8
4-2付属品
 10
280.64277390040678
 20
177.18750000000011
 30
0.0
 11
139.47162763031031
 21
177.18750000000011
 31
0.0
  0
ARC
  5
1D22F
  8
4-2付属品
 10
139.47162763031039
 20
170.1875000000002
 30
0.0
 40
6.999999999999913
 50
90.000000000000469
 51
170.00000000000011
  0
LINE
  5
1D230
  8
4-2付属品
 10
132.57797335922501
 20
171.40303724366859
 30
0.0
 11
127.0232571002777
 21
139.9006759111667
 31
0.0
  0
ARC
  5
1D231
  8
4-2付属品
 10
126.5308532237715
 20
139.98750000000021
 30
0.0
 40
0.5000000000000624
 50
270.0
 51
349.99999999999608
  0
LINE
  5
1D232
  8
4-2付属品
 10
126.5308532237715
 20
139.48750000000021
 30
0.0
 11
124.5000000000001
 21
139.48750000000021
 31
0.0
  0
ARC
  5
1D233
  8
4-2付属品
 10
124.5000000000001
 20
139.98750000000021
 30
0.0
 40
0.5000000000000285
 50
170.0000000000054
 51
270.00000000000171
  0
LINE
  5
1D234
  8
4-2付属品
 10
124.007596123494
 20
140.07432408883361
 30
0.0
 11
129.7120704165861
 21
172.42600543772221
 31
0.0
  0
ARC
  5
1D235
  8
4-2付属品
 10
139.56014794670821
 20
170.68952366105299
 30
0.0
 40
10.00000000000002
 50
93.515098489138694
 51
170.00000000000031
  0
LINE
  5
1D236
  8
4-2付属品
 10
138.94703230425949
 20
180.67071042460901
 30
0.0
 11
154.56112839719259
 21
181.62983951256689
 31
0.0
  0
ARC
  5
1D237
  8
4-2付属品
 10
154.4998168329478
 20
182.62795818892261
 30
0.0
 40
0.9999999999999214
 50
273.51509848913992
 51
359.99955588881369
  0
LINE
  5
1D238
  8
4-2付属品
 10
155.4998168329177
 20
182.6279504377201
 30
0.0
 11
155.4999847404371
 21
204.2900754163164
 31
0.0
  0
ARC
  5
1D239
  8
4-2付属品
 10
154.99998474045211
 20
204.29007929191761
 30
0.0
 40
0.5000000000000704
 50
359.99955588881528
 51
85.800000000003664
  0
LINE
  5
1D23A
  8
4-2付属品
 10
155.03660383901581
 20
204.78873653052989
 30
0.0
 11
142.96338090143641
 21
205.6753386020541
 31
0.0
  0
ARC
  5
1D23B
  8
4-2付属品
 10
143.00000000000011
 20
206.17399584066629
 30
0.0
 40
0.4999999999999594
 50
179.99999999999659
 51
265.8000000000124
  0
LINE
  5
1D23C
  8
4-2付属品
 10
142.5000000000002
 20
206.17399584066629
 30
0.0
 11
142.5000000000002
 21
207.1766885948947
 31
0.0
  0
ARC
  5
1D23D
  8
4-2付属品
 10
143.0000000000002
 20
207.17668859489461
 30
0.0
 40
0.500000000000057
 50
85.800000000016638
 51
179.99999999999659
  0
LINE
  5
1D23E
  8
4-2付属品
 10
143.0366190985639
 20
207.6753458335069
 30
0.0
 11
155.4589191273825
 21
206.7631091428081
 31
0.0
  0
LINE
  5
1D23F
  8
4-2付属品
 10
155.4589191273825
 20
206.7631091428081
 30
0.0
 11
156.0000000000002
 21
206.22202827019061
 31
0.0
  0
LINE
  5
1D240
  8
4-2付属品
 10
156.0000000000002
 20
206.22202827019061
 30
0.0
 11
156.46704848063899
 21
206.6890767508294
 31
0.0
  0
LINE
  5
1D241
  8
4-2付属品
 10
156.46704848063899
 20
206.6890767508294
 30
0.0
 11
157.0366038390149
 21
206.6472512198014
 31
0.0
  0
ARC
  5
1D242
  8
4-2付属品
 10
156.9999847404512
 20
206.14859398118929
 30
0.0
 40
0.4999999999998522
 50
359.99955588879578
 51
85.800000000001745
  0
LINE
  5
1D243
  8
4-2付属品
 10
157.49998474043599
 20
206.14859010558791
 30
0.0
 11
157.49980288883501
 21
182.6875077512027
 31
0.0
  0
ARC
  5
1D244
  8
4-2付属品
 10
158.49980288880499
 20
182.68750000000011
 30
0.0
 40
1.000000000000026
 50
179.9995558888088
 51
270.0
  0
LINE
  5
1D245
  8
4-2付属品
 10
158.49980288880499
 20
181.68750000000011
 30
0.0
 11
209.70000000000019
 21
181.68750000000011
 31
0.0
  0
LINE
  5
1D246
  8
4-2付属品
 10
209.70000000000019
 20
175.3848180832411
 30
0.0
 11
210.0000000000002
 21
175.08481808324109
 31
0.0
  0
LINE
  5
1D247
  8
4-2付属品
 10
210.0000000000002
 20
175.08481808324109
 30
0.0
 11
210.3000000000001
 21
175.3848180832411
 31
0.0
  0
LINE
  5
1D248
  8
4-2付属品
 10
210.3000000000001
 20
181.68750000000011
 30
0.0
 11
261.50000000000011
 21
181.68750000000011
 31
0.0
  0
ARC
  5
1D249
  8
4-2付属品
 10
261.50000000000011
 20
182.68750000000011
 30
0.0
 40
1.0
 50
270.0
 51
0.0
  0
LINE
  5
1D24A
  8
4-2付属品
 10
262.50000000000023
 20
182.68750000000011
 30
0.0
 11
262.50000000000023
 21
198.36443944377959
 31
0.0
  0
ARC
  5
1D24B
  8
4-2付属品
 10
263.00000000000011
 20
198.3644394437797
 30
0.0
 40
0.4999999999999433
 50
85.800000000002456
 51
180.00000000000651
  0
LINE
  5
1D24C
  8
4-2付属品
 10
263.0366190985639
 20
198.86309668239181
 30
0.0
 11
263.4591369649371
 21
198.8320689098145
 31
0.0
  0
LINE
  5
1D24D
  8
2-1寸法
 10
190.00032874287751
 20
184.75248236229351
 30
0.0
 11
190.00032874287751
 21
220.30981752343479
 31
0.0
  0
LINE
  5
1D24E
  8
2-1寸法
 10
122.5000000000001
 20
213.6875000000002
 30
0.0
 11
122.5000000000001
 21
220.30981752343479
 31
0.0
  0
LINE
  5
1D24F
  8
2-1寸法
 10
189.00032874287751
 20
219.80981752343479
 30
0.0
 11
123.5000000000001
 21
219.80981752343479
 31
0.0
  0
INSERT
  5
1D250
  8
2-1寸法
  2
_DOT
 10
190.00032874287751
 20
219.80981752343479
 30
0.0
  0
INSERT
  5
1D251
  8
2-1寸法
  2
_DOT
 10
122.5000000000001
 20
219.80981752343479
 30
0.0
 50
180.0
  0
INSERT
  5
1D252
  8
0
  2
*U44
 10
0.0
 20
0.0
 30
0.0
  0
LINE
  5
1D253
  8
2-1寸法
 10
242.1263779099832
 20
181.6848175234347
 30
0.0
 11
244.6263779099832
 21
181.6848175234347
 31
0.0
  0
LINE
  5
1D254
  8
2-1寸法
 10
242.1263779099832
 20
177.18481752343459
 30
0.0
 11
244.6263779099832
 21
177.18481752343459
 31
0.0
  0
LINE
  5
1D255
  8
2-1寸法
 10
245.1263779099832
 20
180.68481752343459
 30
0.0
 11
245.1263779099832
 21
178.18481752343459
 31
0.0
  0
INSERT
  5
1D256
  8
0
  2
*U45
 10
0.0
 20
0.0
 30
0.0
  0
INSERT
  5
1D257
  8
2-1寸法
  2
_DOT
 10
245.1263779099832
 20
181.6848175234347
 30
0.0
 50
90.0
  0
INSERT
  5
1D258
  8
2-1寸法
  2
_DOT
 10
245.1263779099832
 20
177.18481752343459
 30
0.0
 50
270.0
  0
VIEWPORT
  5
1C7B1
 67
     1
  8
0
 10
142.58924865722659
 20
100.7162877271122
 30
0.0
 40
494.415385360367
 41
225.3585279230966
 68
     1
 69
     1
1001
ACAD
1000
MVIEW
1002
{
1070
    16
1010
0.0
1020
0.0
1030
0.0
1010
0.0
1020
0.0
1030
1.0
1040
0.0
1040
225.3585279230966
1040
142.58924865722659
1040
100.7162877271122
1040
50.0
1040
0.0
1040
0.0
1070
     0
1070
  1000
1070
     1
1070
     1
1070
     0
1070
     0
1070
     0
1070
     0
1040
0.0
1040
0.0
1040
0.0
1040
10.0
1040
10.0
1040
10.0
1040
10.0
1070
     0
1002
{
1002
}
1002
}
  0
VIEWPORT
  5
1C7B5
 67
     1
  8
0
 10
142.58924865722659
 20
99.112922191619873
 30
0.0
 40
228.14279785156251
 41
158.5806755065918
 68
     2
 69
     2
1001
ACAD
1000
MVIEW
1002
{
1070
    16
1010
0.0
1020
0.0
1030
0.0
1010
0.0
1020
0.0
1030
1.0
1040
0.0
1040
300.60000000000002
1040
210.0
1040
148.5
1040
50.0
1040
0.0
1040
0.0
1070
     0
1070
  1000
1070
     1
1070
     3
1070
     0
1070
     0
1070
     0
1070
     0
1040
0.0
1040
0.0
1040
0.0
1040
10.0
1040
20.0
1040
10.0
1040
10.0
1070
     0
1002
{
1002
}
1002
}
  0
ENDSEC
  0
EOF
